  0
SECTION
  2
HEADER
  9
$ACADVER
  1
AC1015
  9
$ACADMAINTVER
 70
     6
  9
$DWGCODEPAGE
  3
ANSI_932
  9
$INSBASE
 10
0.0
 20
0.0
 30
0.0
  9
$EXTMIN
 10
-565.2000000000002
 20
-414.9068089556921
 30
0.0
  9
$EXTMAX
 10
565.2
 20
414.9068089556921
 30
0.0
  9
$LIMMIN
 10
-210.0
 20
-148.5
  9
$LIMMAX
 10
210.0
 20
148.5
  9
$ORTHOMODE
 70
     0
  9
$REGENMODE
 70
     1
  9
$FILLMODE
 70
     1
  9
$QTEXTMODE
 70
     0
  9
$MIRRTEXT
 70
     1
  9
$LTSCALE
 40
0.25
  9
$ATTMODE
 70
     1
  9
$TEXTSIZE
 40
0.2
  9
$TRACEWID
 40
0.05
  9
$TEXTSTYLE
  7
Standard
  9
$CLAYER
  8
0
  9
$CELTYPE
  6
ByLayer
  9
$CECOLOR
 62
   256
  9
$CELTSCALE
 40
1.0
  9
$DISPSILH
 70
     0
  9
$DIMSCALE
 40
1.0
  9
$DIMASZ
 40
3.000001907348633
  9
$DIMEXO
 40
1.0
  9
$DIMDLI
 40
10.0
  9
$DIMRND
 40
0.0
  9
$DIMDLE
 40
0.0
  9
$DIMEXE
 40
1.0
  9
$DIMTP
 40
0.0
  9
$DIMTM
 40
0.0
  9
$DIMTXT
 40
3.5
  9
$DIMCEN
 40
0.0
  9
$DIMTSZ
 40
0.0
  9
$DIMTOL
 70
     0
  9
$DIMLIM
 70
     0
  9
$DIMTIH
 70
     0
  9
$DIMTOH
 70
     0
  9
$DIMSE1
 70
     0
  9
$DIMSE2
 70
     0
  9
$DIMTAD
 70
     1
  9
$DIMZIN
 70
     8
  9
$DIMBLK
  1

  9
$DIMASO
 70
     1
  9
$DIMSHO
 70
     1
  9
$DIMPOST
  1

  9
$DIMAPOST
  1

  9
$DIMALT
 70
     0
  9
$DIMALTD
 70
     2
  9
$DIMALTF
 40
25.4
  9
$DIMLFAC
 40
1.0
  9
$DIMTOFL
 70
     0
  9
$DIMTVP
 40
0.0
  9
$DIMTIX
 70
     0
  9
$DIMSOXD
 70
     0
  9
$DIMSAH
 70
     0
  9
$DIMBLK1
  1

  9
$DIMBLK2
  1

  9
$DIMSTYLE
  2
Standard
  9
$DIMCLRD
 70
     0
  9
$DIMCLRE
 70
     0
  9
$DIMCLRT
 70
     0
  9
$DIMTFAC
 40
0.65
  9
$DIMGAP
 40
0.09
  9
$DIMJUST
 70
     0
  9
$DIMSD1
 70
     0
  9
$DIMSD2
 70
     0
  9
$DIMTOLJ
 70
     0
  9
$DIMTZIN
 70
     0
  9
$DIMALTZ
 70
     0
  9
$DIMALTTZ
 70
     0
  9
$DIMUPT
 70
     0
  9
$DIMDEC
 70
     2
  9
$DIMTDEC
 70
     2
  9
$DIMALTU
 70
     2
  9
$DIMALTTD
 70
     2
  9
$DIMTXSTY
  7
Standard
  9
$DIMAUNIT
 70
     0
  9
$DIMADEC
 70
     2
  9
$DIMALTRND
 40
0.0
  9
$DIMAZIN
 70
     2
  9
$DIMDSEP
 70
    46
  9
$DIMATFIT
 70
     3
  9
$DIMFRAC
 70
     0
  9
$DIMLDRBLK
  1

  9
$DIMLUNIT
 70
     2
  9
$DIMLWD
 70
    -2
  9
$DIMLWE
 70
    -2
  9
$DIMTMOVE
 70
     0
  9
$LUNITS
 70
     2
  9
$LUPREC
 70
     4
  9
$SKETCHINC
 40
0.1
  9
$FILLETRAD
 40
0.5
  9
$AUNITS
 70
     0
  9
$AUPREC
 70
     0
  9
$MENU
  1
.
  9
$ELEVATION
 40
0.0
  9
$PELEVATION
 40
0.0
  9
$THICKNESS
 40
0.0
  9
$LIMCHECK
 70
     0
  9
$CHAMFERA
 40
0.0
  9
$CHAMFERB
 40
0.0
  9
$CHAMFERC
 40
0.0
  9
$CHAMFERD
 40
0.0
  9
$SKPOLY
 70
     0
  9
$TDCREATE
 40
2458043.411107732
  9
$TDUCREATE
 40
2458043.036107732
  9
$TDUPDATE
 40
2458043.411108889
  9
$TDUUPDATE
 40
2458043.036108889
  9
$TDINDWG
 40
0.0000000116
  9
$TDUSRTIMER
 40
0.0000000116
  9
$USRTIMER
 70
     1
  9
$ANGBASE
 50
0.0
  9
$ANGDIR
 70
     0
  9
$PDMODE
 70
     0
  9
$PDSIZE
 40
1.0
  9
$PLINEWID
 40
0.0
  9
$SPLFRAME
 70
     0
  9
$SPLINETYPE
 70
     6
  9
$SPLINESEGS
 70
     8
  9
$HANDSEED
  5
2B2
  9
$SURFTAB1
 70
     6
  9
$SURFTAB2
 70
     6
  9
$SURFTYPE
 70
     6
  9
$SURFU
 70
     6
  9
$SURFV
 70
     6
  9
$UCSBASE
  2

  9
$UCSNAME
  2

  9
$UCSORG
 10
0.0
 20
0.0
 30
0.0
  9
$UCSXDIR
 10
1.0
 20
0.0
 30
0.0
  9
$UCSYDIR
 10
0.0
 20
1.0
 30
0.0
  9
$UCSORTHOREF
  2

  9
$UCSORTHOVIEW
 70
     0
  9
$UCSORGTOP
 10
0.0
 20
0.0
 30
0.0
  9
$UCSORGBOTTOM
 10
0.0
 20
0.0
 30
0.0
  9
$UCSORGLEFT
 10
0.0
 20
0.0
 30
0.0
  9
$UCSORGRIGHT
 10
0.0
 20
0.0
 30
0.0
  9
$UCSORGFRONT
 10
0.0
 20
0.0
 30
0.0
  9
$UCSORGBACK
 10
0.0
 20
0.0
 30
0.0
  9
$PUCSBASE
  2

  9
$PUCSNAME
  2

  9
$PUCSORG
 10
0.0
 20
0.0
 30
0.0
  9
$PUCSXDIR
 10
1.0
 20
0.0
 30
0.0
  9
$PUCSYDIR
 10
0.0
 20
1.0
 30
0.0
  9
$PUCSORTHOREF
  2

  9
$PUCSORTHOVIEW
 70
     0
  9
$PUCSORGTOP
 10
0.0
 20
0.0
 30
0.0
  9
$PUCSORGBOTTOM
 10
0.0
 20
0.0
 30
0.0
  9
$PUCSORGLEFT
 10
0.0
 20
0.0
 30
0.0
  9
$PUCSORGRIGHT
 10
0.0
 20
0.0
 30
0.0
  9
$PUCSORGFRONT
 10
0.0
 20
0.0
 30
0.0
  9
$PUCSORGBACK
 10
0.0
 20
0.0
 30
0.0
  9
$USERI1
 70
     0
  9
$USERI2
 70
     0
  9
$USERI3
 70
     0
  9
$USERI4
 70
     0
  9
$USERI5
 70
     0
  9
$USERR1
 40
0.0
  9
$USERR2
 40
0.0
  9
$USERR3
 40
0.0
  9
$USERR4
 40
0.0
  9
$USERR5
 40
0.0
  9
$WORLDVIEW
 70
     1
  9
$SHADEDGE
 70
     3
  9
$SHADEDIF
 70
    70
  9
$TILEMODE
 70
     1
  9
$MAXACTVP
 70
    64
  9
$PINSBASE
 10
0.0
 20
0.0
 30
0.0
  9
$PLIMCHECK
 70
     0
  9
$PEXTMIN
 10
1.000000000000000E+20
 20
1.000000000000000E+20
 30
1.000000000000000E+20
  9
$PEXTMAX
 10
-1.000000000000000E+20
 20
-1.000000000000000E+20
 30
-1.000000000000000E+20
  9
$PLIMMIN
 10
0.0
 20
0.0
  9
$PLIMMAX
 10
12.0
 20
9.0
  9
$UNITMODE
 70
     0
  9
$VISRETAIN
 70
     0
  9
$PLINEGEN
 70
     1
  9
$PSLTSCALE
 70
     0
  9
$TREEDEPTH
 70
  3020
  9
$CMLSTYLE
  2
Standard
  9
$CMLJUST
 70
     0
  9
$CMLSCALE
 40
1.0
  9
$PROXYGRAPHICS
 70
     0
  9
$MEASUREMENT
 70
     1
  9
$CELWEIGHT
370
    -1
  9
$ENDCAPS
280
     0
  9
$JOINSTYLE
280
     0
  9
$LWDISPLAY
290
     1
  9
$INSUNITS
 70
     4
  9
$HYPERLINKBASE
  1

  9
$STYLESHEET
  1

  9
$XEDIT
290
     1
  9
$CEPSNTYPE
380
     0
  9
$PSTYLEMODE
290
     1
  9
$FINGERPRINTGUID
  2
{B97C8919-9B56-4352-B5CF-58203F7058C5}
  9
$VERSIONGUID
  2
{FAEB1C32-E019-11D5-929B-00C0DF256EC4}
  9
$EXTNAMES
290
     1
  9
$PSVPSCALE
 40
0.0
  9
$OLESTARTUP
290
     0
  0
ENDSEC
  0
SECTION
  2
CLASSES
  0
CLASS
  1
ACDBDICTIONARYWDFLT
  2
AcDbDictionaryWithDefault
  3
ObjectDBX Classes
 90
        0
280
     0
281
     0
  0
CLASS
  1
VISUALSTYLE
  2
AcDbVisualStyle
  3
ObjectDBX Classes
 90
     4095
280
     0
281
     0
  0
CLASS
  1
MATERIAL
  2
AcDbMaterial
  3
ObjectDBX Classes
 90
     1153
280
     0
281
     0
  0
CLASS
  1
SCALE
  2
AcDbScale
  3
ObjectDBX Classes
 90
     1153
280
     0
281
     0
  0
CLASS
  1
SUN
  2
AcDbSun
  3
SCENEOE
 90
     1153
280
     0
281
     0
  0
CLASS
  1
DICTIONARYVAR
  2
AcDbDictionaryVar
  3
ObjectDBX Classes
 90
        0
280
     0
281
     0
  0
CLASS
  1
ACDBPLACEHOLDER
  2
AcDbPlaceHolder
  3
ObjectDBX Classes
 90
        0
280
     0
281
     0
  0
CLASS
  1
LAYOUT
  2
AcDbLayout
  3
ObjectDBX Classes
 90
        0
280
     0
281
     0
  0
ENDSEC
  0
SECTION
  2
TABLES
  0
TABLE
  2
VPORT
  5
8
102
{ACAD_XDICTIONARY
360
278
102
}
330
0
100
AcDbSymbolTable
 70
     1
  0
VPORT
  5
29
330
8
100
AcDbSymbolTableRecord
100
AcDbViewportTableRecord
  2
*Active
 70
     0
 10
0.0
 20
0.0
 11
1.0
 21
1.0
 12
-0.000000000000032
 22
-0.3576824436699724
 13
0.0
 23
0.0
 14
0.5
 24
0.5
 15
0.5
 25
0.5
 16
0.0
 26
0.0
 36
1.0
 17
0.0
 27
0.0
 37
0.0
 40
281.4069579047839
 41
1.365765803594817
 42
50.0
 43
0.0
 44
0.0
 50
0.0
 51
0.0
 71
     0
 72
  1000
 73
     1
 74
     1
 75
     0
 76
     0
 77
     0
 78
     0
281
     0
 65
     1
110
0.0
120
0.0
130
0.0
111
1.0
121
0.0
131
0.0
112
0.0
122
1.0
132
0.0
 79
     0
146
0.0
  0
ENDTAB
  0
TABLE
  2
LTYPE
  5
5
330
0
100
AcDbSymbolTable
 70
    67
  0
LTYPE
  5
14
330
5
100
AcDbSymbolTableRecord
100
AcDbLinetypeTableRecord
  2
ByBlock
 70
     0
  3

 72
    65
 73
     0
 40
0.0
  0
LTYPE
  5
15
330
5
100
AcDbSymbolTableRecord
100
AcDbLinetypeTableRecord
  2
ByLayer
 70
     0
  3

 72
    65
 73
     0
 40
0.0
  0
LTYPE
  5
16
330
5
100
AcDbSymbolTableRecord
100
AcDbLinetypeTableRecord
  2
Continuous
 70
     0
  3
Solid line
 72
    65
 73
     0
 40
0.0
  0
LTYPE
  5
6B
330
5
100
AcDbSymbolTableRecord
100
AcDbLinetypeTableRecord
  2
HIDDENX2
 70
     0
  3
Hidden (2x) ____ ____ ____ ____ ____ ____ ____ 
 72
    65
 73
     2
 40
19.05
 49
12.7
 74
     0
 49
-6.35
 74
     0
  0
LTYPE
  5
6C
330
5
100
AcDbSymbolTableRecord
100
AcDbLinetypeTableRecord
  2
HIDDEN
 70
     0
  3
Hidden __ __ __ __ __ __ __ __ __ __ __ __ __ __
 72
    65
 73
     2
 40
9.524999999999999
 49
6.35
 74
     0
 49
-3.175
 74
     0
  0
LTYPE
  5
6D
330
5
100
AcDbSymbolTableRecord
100
AcDbLinetypeTableRecord
  2
HIDDEN2
 70
     0
  3
Hidden (.5x) _ _ _ _ _ _ _ _ _ _ _ _ _ _ _ _ _ 
 72
    65
 73
     2
 40
4.762499999999999
 49
3.175
 74
     0
 49
-1.5875
 74
     0
  0
LTYPE
  5
6E
330
5
100
AcDbSymbolTableRecord
100
AcDbLinetypeTableRecord
  2
DASHED
 70
     0
  3
Dashed __ __ __ __ __ __ __ __ __ __ __ __ __ _
 72
    65
 73
     2
 40
19.05
 49
12.7
 74
     0
 49
-6.35
 74
     0
  0
LTYPE
  5
6F
330
5
100
AcDbSymbolTableRecord
100
AcDbLinetypeTableRecord
  2
DASHED2
 70
     0
  3
Dashed (.5x) _ _ _ _ _ _ _ _ _ _ _ _ _ _ _ _ _ 
 72
    65
 73
     2
 40
9.524999999999999
 49
6.35
 74
     0
 49
-3.175
 74
     0
  0
LTYPE
  5
70
330
5
100
AcDbSymbolTableRecord
100
AcDbLinetypeTableRecord
  2
DASHEDX2
 70
     0
  3
Dashed (2x) ____  ____  ____  ____  ____  ___
 72
    65
 73
     2
 40
38.09999999999999
 49
25.4
 74
     0
 49
-12.7
 74
     0
  0
LTYPE
  5
71
330
5
100
AcDbSymbolTableRecord
100
AcDbLinetypeTableRecord
  2
DOTX2
 70
     0
  3
Dot (2x) .  .  .  .  .  .  .  .  .  .  .  .  .  .
 72
    65
 73
     2
 40
12.7
 49
0.0
 74
     0
 49
-12.7
 74
     0
  0
LTYPE
  5
72
330
5
100
AcDbSymbolTableRecord
100
AcDbLinetypeTableRecord
  2
DOT
 70
     0
  3
Dot . . . . . . . . . . . . . . . . . . . . . . . .
 72
    65
 73
     2
 40
6.35
 49
0.0
 74
     0
 49
-6.35
 74
     0
  0
LTYPE
  5
73
330
5
100
AcDbSymbolTableRecord
100
AcDbLinetypeTableRecord
  2
DOT2
 70
     0
  3
Dot (.5x) ........................................
 72
    65
 73
     2
 40
3.175
 49
0.0
 74
     0
 49
-3.175
 74
     0
  0
LTYPE
  5
74
330
5
100
AcDbSymbolTableRecord
100
AcDbLinetypeTableRecord
  2
CENTERX2
 70
     0
  3
Center (2x) ________  __  ________  __  _____
 72
    65
 73
     4
 40
101.6
 49
63.5
 74
     0
 49
-12.7
 74
     0
 49
12.7
 74
     0
 49
-12.7
 74
     0
  0
LTYPE
  5
75
330
5
100
AcDbSymbolTableRecord
100
AcDbLinetypeTableRecord
  2
CENTER
 70
     0
  3
Center ____ _ ____ _ ____ _ ____ _ ____ _ ____
 72
    65
 73
     4
 40
50.8
 49
31.75
 74
     0
 49
-6.35
 74
     0
 49
6.35
 74
     0
 49
-6.35
 74
     0
  0
LTYPE
  5
76
330
5
100
AcDbSymbolTableRecord
100
AcDbLinetypeTableRecord
  2
CENTER2
 70
     0
  3
Center (.5x) ___ _ ___ _ ___ _ ___ _ ___ _ ___
 72
    65
 73
     4
 40
28.575
 49
19.05
 74
     0
 49
-3.175
 74
     0
 49
3.175
 74
     0
 49
-3.175
 74
     0
  0
LTYPE
  5
77
330
5
100
AcDbSymbolTableRecord
100
AcDbLinetypeTableRecord
  2
DASHDOTX2
 70
     0
  3
Dash dot (2x) ____  .  ____  .  ____  .  ___
 72
    65
 73
     4
 40
50.8
 49
25.4
 74
     0
 49
-12.7
 74
     0
 49
0.0
 74
     0
 49
-12.7
 74
     0
  0
LTYPE
  5
78
330
5
100
AcDbSymbolTableRecord
100
AcDbLinetypeTableRecord
  2
DASHDOT
 70
     0
  3
Dash dot __ . __ . __ . __ . __ . __ . __ . __
 72
    65
 73
     4
 40
25.4
 49
12.7
 74
     0
 49
-6.35
 74
     0
 49
0.0
 74
     0
 49
-6.35
 74
     0
  0
LTYPE
  5
79
330
5
100
AcDbSymbolTableRecord
100
AcDbLinetypeTableRecord
  2
DASHDOT2
 70
     0
  3
Dash dot (.5x) _._._._._._._._._._._._._._._.
 72
    65
 73
     4
 40
12.7
 49
6.35
 74
     0
 49
-3.175
 74
     0
 49
0.0
 74
     0
 49
-3.175
 74
     0
  0
LTYPE
  5
7A
330
5
100
AcDbSymbolTableRecord
100
AcDbLinetypeTableRecord
  2
DIVIDEX2
 70
     0
  3
Divide (2x) ________  .  .  ________  .  .  _
 72
    65
 73
     6
 40
63.5
 49
25.4
 74
     0
 49
-12.7
 74
     0
 49
0.0
 74
     0
 49
-12.7
 74
     0
 49
0.0
 74
     0
 49
-12.7
 74
     0
  0
LTYPE
  5
7B
330
5
100
AcDbSymbolTableRecord
100
AcDbLinetypeTableRecord
  2
DIVIDE
 70
     0
  3
Divide ____ . . ____ . . ____ . . ____ . . ____
 72
    65
 73
     6
 40
31.75
 49
12.7
 74
     0
 49
-6.35
 74
     0
 49
0.0
 74
     0
 49
-6.35
 74
     0
 49
0.0
 74
     0
 49
-6.35
 74
     0
  0
LTYPE
  5
7C
330
5
100
AcDbSymbolTableRecord
100
AcDbLinetypeTableRecord
  2
DIVIDE2
 70
     0
  3
Divide (.5x) __..__..__..__..__..__..__..__.._
 72
    65
 73
     6
 40
15.875
 49
6.35
 74
     0
 49
-3.175
 74
     0
 49
0.0
 74
     0
 49
-3.175
 74
     0
 49
0.0
 74
     0
 49
-3.175
 74
     0
  0
LTYPE
  5
7D
330
5
100
AcDbSymbolTableRecord
100
AcDbLinetypeTableRecord
  2
BORDERX2
 70
     0
  3
Border (2x) ____  ____  .  ____  ____  .  ___
 72
    65
 73
     6
 40
88.89999999999999
 49
25.4
 74
     0
 49
-12.7
 74
     0
 49
25.4
 74
     0
 49
-12.7
 74
     0
 49
0.0
 74
     0
 49
-12.7
 74
     0
  0
LTYPE
  5
7E
330
5
100
AcDbSymbolTableRecord
100
AcDbLinetypeTableRecord
  2
BORDER
 70
     0
  3
Border __ __ . __ __ . __ __ . __ __ . __ __ .
 72
    65
 73
     6
 40
44.45
 49
12.7
 74
     0
 49
-6.35
 74
     0
 49
12.7
 74
     0
 49
-6.35
 74
     0
 49
0.0
 74
     0
 49
-6.35
 74
     0
  0
LTYPE
  5
7F
330
5
100
AcDbSymbolTableRecord
100
AcDbLinetypeTableRecord
  2
BORDER2
 70
     0
  3
Border (.5x) __.__.__.__.__.__.__.__.__.__.__.
 72
    65
 73
     6
 40
22.225
 49
6.35
 74
     0
 49
-3.175
 74
     0
 49
6.35
 74
     0
 49
-3.175
 74
     0
 49
0.0
 74
     0
 49
-3.175
 74
     0
  0
LTYPE
  5
80
330
5
100
AcDbSymbolTableRecord
100
AcDbLinetypeTableRecord
  2
PHANTOMX2
 70
     0
  3
Phantom (2x) ____________    ____    ____   _
 72
    65
 73
     6
 40
127.0
 49
63.5
 74
     0
 49
-12.7
 74
     0
 49
12.7
 74
     0
 49
-12.7
 74
     0
 49
12.7
 74
     0
 49
-12.7
 74
     0
  0
LTYPE
  5
81
330
5
100
AcDbSymbolTableRecord
100
AcDbLinetypeTableRecord
  2
PHANTOM
 70
     0
  3
Phantom ______  __  __  ______  __  __  ______ 
 72
    65
 73
     6
 40
63.5
 49
31.75
 74
     0
 49
-6.35
 74
     0
 49
6.35
 74
     0
 49
-6.35
 74
     0
 49
6.35
 74
     0
 49
-6.35
 74
     0
  0
LTYPE
  5
82
330
5
100
AcDbSymbolTableRecord
100
AcDbLinetypeTableRecord
  2
PHANTOM2
 70
     0
  3
Phantom (.5x) ___ _ _ ___ _ _ ___ _ _ ___ _ _
 72
    65
 73
     6
 40
31.75
 49
15.875
 74
     0
 49
-3.175
 74
     0
 49
3.175
 74
     0
 49
-3.175
 74
     0
 49
3.175
 74
     0
 49
-3.175
 74
     0
  0
LTYPE
  5
83
330
5
100
AcDbSymbolTableRecord
100
AcDbLinetypeTableRecord
  2
ACAD_ISO06W100
 70
     0
  3
ISO long-dash triple-dot ____ ... ____ ... ____
 72
    65
 73
     8
 40
36.0
 49
24.0
 74
     0
 49
-3.0
 74
     0
 49
0.0
 74
     0
 49
-3.0
 74
     0
 49
0.0
 74
     0
 49
-3.0
 74
     0
 49
0.0
 74
     0
 49
-3.0
 74
     0
  0
LTYPE
  5
84
330
5
100
AcDbSymbolTableRecord
100
AcDbLinetypeTableRecord
  2
ACAD_ISO13W100
 70
     0
  3
ISO double-dash double-dot __ __ . . __ __ . . _
 72
    65
 73
     8
 40
36.0
 49
12.0
 74
     0
 49
-3.0
 74
     0
 49
12.0
 74
     0
 49
-3.0
 74
     0
 49
0.0
 74
     0
 49
-3.0
 74
     0
 49
0.0
 74
     0
 49
-3.0
 74
     0
  0
LTYPE
  5
85
330
5
100
AcDbSymbolTableRecord
100
AcDbLinetypeTableRecord
  2
ACAD_ISO14W100
 70
     0
  3
ISO dash triple-dot __ . . . __ . . . __ . . . _
 72
    65
 73
     8
 40
24.0
 49
12.0
 74
     0
 49
-3.0
 74
     0
 49
0.0
 74
     0
 49
-3.0
 74
     0
 49
0.0
 74
     0
 49
-3.0
 74
     0
 49
0.0
 74
     0
 49
-3.0
 74
     0
  0
LTYPE
  5
86
330
5
100
AcDbSymbolTableRecord
100
AcDbLinetypeTableRecord
  2
ACAD_ISO02W100
 70
     0
  3
ISO dash __ __ __ __ __ __ __ __ __ __ __ __ __
 72
    65
 73
     2
 40
15.0
 49
12.0
 74
     0
 49
-3.0
 74
     0
  0
LTYPE
  5
87
330
5
100
AcDbSymbolTableRecord
100
AcDbLinetypeTableRecord
  2
ACAD_ISO03W100
 70
     0
  3
ISO dash space __    __    __    __    __    __
 72
    65
 73
     2
 40
30.0
 49
12.0
 74
     0
 49
-18.0
 74
     0
  0
LTYPE
  5
88
330
5
100
AcDbSymbolTableRecord
100
AcDbLinetypeTableRecord
  2
ACAD_ISO04W100
 70
     0
  3
ISO long-dash dot ____ . ____ . ____ . ____ . _
 72
    65
 73
     4
 40
30.0
 49
24.0
 74
     0
 49
-3.0
 74
     0
 49
0.0
 74
     0
 49
-3.0
 74
     0
  0
LTYPE
  5
89
330
5
100
AcDbSymbolTableRecord
100
AcDbLinetypeTableRecord
  2
ACAD_ISO05W100
 70
     0
  3
ISO long-dash double-dot ____ .. ____ .. ____ . 
 72
    65
 73
     6
 40
33.0
 49
24.0
 74
     0
 49
-3.0
 74
     0
 49
0.0
 74
     0
 49
-3.0
 74
     0
 49
0.0
 74
     0
 49
-3.0
 74
     0
  0
LTYPE
  5
8A
330
5
100
AcDbSymbolTableRecord
100
AcDbLinetypeTableRecord
  2
ACAD_ISO07W100
 70
     0
  3
ISO dot . . . . . . . . . . . . . . . . . . . . 
 72
    65
 73
     2
 40
3.0
 49
0.0
 74
     0
 49
-3.0
 74
     0
  0
LTYPE
  5
8B
330
5
100
AcDbSymbolTableRecord
100
AcDbLinetypeTableRecord
  2
ACAD_ISO08W100
 70
     0
  3
ISO long-dash short-dash ____ __ ____ __ ____ _
 72
    65
 73
     4
 40
36.0
 49
24.0
 74
     0
 49
-3.0
 74
     0
 49
6.0
 74
     0
 49
-3.0
 74
     0
  0
LTYPE
  5
8C
330
5
100
AcDbSymbolTableRecord
100
AcDbLinetypeTableRecord
  2
ACAD_ISO09W100
 70
     0
  3
ISO long-dash double-short-dash ____ __ __ ____
 72
    65
 73
     6
 40
45.0
 49
24.0
 74
     0
 49
-3.0
 74
     0
 49
6.0
 74
     0
 49
-3.0
 74
     0
 49
6.0
 74
     0
 49
-3.0
 74
     0
  0
LTYPE
  5
8D
330
5
100
AcDbSymbolTableRecord
100
AcDbLinetypeTableRecord
  2
ACAD_ISO10W100
 70
     0
  3
ISO dash dot __ . __ . __ . __ . __ . __ . __ . 
 72
    65
 73
     4
 40
18.0
 49
12.0
 74
     0
 49
-3.0
 74
     0
 49
0.0
 74
     0
 49
-3.0
 74
     0
  0
LTYPE
  5
8E
330
5
100
AcDbSymbolTableRecord
100
AcDbLinetypeTableRecord
  2
ACAD_ISO11W100
 70
     0
  3
ISO double-dash dot __ __ . __ __ . __ __ . __ _
 72
    65
 73
     6
 40
33.0
 49
12.0
 74
     0
 49
-3.0
 74
     0
 49
12.0
 74
     0
 49
-3.0
 74
     0
 49
0.0
 74
     0
 49
-3.0
 74
     0
  0
LTYPE
  5
8F
330
5
100
AcDbSymbolTableRecord
100
AcDbLinetypeTableRecord
  2
ACAD_ISO12W100
 70
     0
  3
ISO dash double-dot __ . . __ . . __ . . __ . . 
 72
    65
 73
     6
 40
21.0
 49
12.0
 74
     0
 49
-3.0
 74
     0
 49
0.0
 74
     0
 49
-3.0
 74
     0
 49
0.0
 74
     0
 49
-3.0
 74
     0
  0
LTYPE
  5
90
330
5
100
AcDbSymbolTableRecord
100
AcDbLinetypeTableRecord
  2
ACAD_ISO15W100
 70
     0
  3
ISO double-dash triple-dot __ __ . . . __ __ . .
 72
    65
 73
    10
 40
39.0
 49
12.0
 74
     0
 49
-3.0
 74
     0
 49
12.0
 74
     0
 49
-3.0
 74
     0
 49
0.0
 74
     0
 49
-3.0
 74
     0
 49
0.0
 74
     0
 49
-3.0
 74
     0
 49
0.0
 74
     0
 49
-3.0
 74
     0
  0
LTYPE
  5
91
330
5
100
AcDbSymbolTableRecord
100
AcDbLinetypeTableRecord
  2
JIS_02_0.7
 70
     0
  3
HIDDEN0.75 _ _ _ _ _ _ _ _ _ _ _ _ _ _ _ _ _ 
 72
    65
 73
     2
 40
1.35
 49
0.75
 74
     0
 49
-0.6
 74
     0
  0
LTYPE
  5
92
330
5
100
AcDbSymbolTableRecord
100
AcDbLinetypeTableRecord
  2
JIS_02_1.0
 70
     0
  3
HIDDEN01 _ _ _ _ _ _ _ _ _ _ _ _ _ _ _ _ _ 
 72
    65
 73
     2
 40
2.0
 49
1.0
 74
     0
 49
-1.0
 74
     0
  0
LTYPE
  5
93
330
5
100
AcDbSymbolTableRecord
100
AcDbLinetypeTableRecord
  2
JIS_02_1.2
 70
     0
  3
HIDDEN01.25  _ _ _ _ _ _ _ _ _ _ _ _ _ _ _ _ _ 
 72
    65
 73
     2
 40
2.5
 49
1.25
 74
     0
 49
-1.25
 74
     0
  0
LTYPE
  5
94
330
5
100
AcDbSymbolTableRecord
100
AcDbLinetypeTableRecord
  2
JIS_02_2.0
 70
     0
  3
HIDDEN02 __ __ __ __ __ __ __ __ __ __ __ 
 72
    65
 73
     2
 40
3.0
 49
2.0
 74
     0
 49
-1.0
 74
     0
  0
LTYPE
  5
95
330
5
100
AcDbSymbolTableRecord
100
AcDbLinetypeTableRecord
  2
JIS_02_4.0
 70
     0
  3
HIDDEN04 ____ ____ ____ ____ ____ ____ ____ 
 72
    65
 73
     2
 40
5.5
 49
4.0
 74
     0
 49
-1.5
 74
     0
  0
LTYPE
  5
96
330
5
100
AcDbSymbolTableRecord
100
AcDbLinetypeTableRecord
  2
JIS_08_11
 70
     0
  3
1SASEN11 ___ _ ___ _ ___ _ ___ _ ___ _ ___
 72
    65
 73
     4
 40
12.8
 49
11.0
 74
     0
 49
-0.6
 74
     0
 49
0.6
 74
     0
 49
-0.6
 74
     0
  0
LTYPE
  5
97
330
5
100
AcDbSymbolTableRecord
100
AcDbLinetypeTableRecord
  2
JIS_08_15
 70
     0
  3
1SASEN15 ____ _ ____ _ ____ _ ____ _ ____ 
 72
    65
 73
     4
 40
17.25
 49
15.0
 74
     0
 49
-0.75
 74
     0
 49
0.75
 74
     0
 49
-0.75
 74
     0
  0
LTYPE
  5
98
330
5
100
AcDbSymbolTableRecord
100
AcDbLinetypeTableRecord
  2
JIS_08_25
 70
     0
  3
1SASEN25 ________  __  ________  __  _____
 72
    65
 73
     4
 40
28.0
 49
25.0
 74
     0
 49
-1.125
 74
     0
 49
0.75
 74
     0
 49
-1.125
 74
     0
  0
LTYPE
  5
99
330
5
100
AcDbSymbolTableRecord
100
AcDbLinetypeTableRecord
  2
JIS_08_37
 70
     0
  3
1SASEN37 ________  __  ________  __  _____
 72
    65
 73
     4
 40
40.5
 49
37.5
 74
     0
 49
-1.125
 74
     0
 49
0.75
 74
     0
 49
-1.125
 74
     0
  0
LTYPE
  5
9A
330
5
100
AcDbSymbolTableRecord
100
AcDbLinetypeTableRecord
  2
JIS_08_50
 70
     0
  3
1SASEN50 _______________  __  ____________
 72
    65
 73
     4
 40
53.0
 49
50.0
 74
     0
 49
-1.125
 74
     0
 49
0.75
 74
     0
 49
-1.125
 74
     0
  0
LTYPE
  5
9B
330
5
100
AcDbSymbolTableRecord
100
AcDbLinetypeTableRecord
  2
JIS_09_08
 70
     0
  3
2SASEN8 __ _ _ __ _ _ __ _ _ __ _ _ __ _ _ 
 72
    65
 73
     6
 40
10.75
 49
8.0
 74
     0
 49
-0.55
 74
     0
 49
0.55
 74
     0
 49
-0.55
 74
     0
 49
0.55
 74
     0
 49
-0.55
 74
     0
  0
LTYPE
  5
9C
330
5
100
AcDbSymbolTableRecord
100
AcDbLinetypeTableRecord
  2
JIS_09_15
 70
     0
  3
2SASEN15 ___ _ _ ___ _ _ ___ _ _ ___ _ _ ___ 
 72
    65
 73
     6
 40
18.9
 49
15.0
 74
     0
 49
-0.9
 74
     0
 49
0.6
 74
     0
 49
-0.9
 74
     0
 49
0.6
 74
     0
 49
-0.9
 74
     0
  0
LTYPE
  5
9D
330
5
100
AcDbSymbolTableRecord
100
AcDbLinetypeTableRecord
  2
JIS_09_29
 70
     0
  3
2SASEN29 ______　__  __  ______　__  __  ___
 72
    65
 73
     6
 40
34.0
 49
29.0
 74
     0
 49
-1.2
 74
     0
 49
0.7
 74
     0
 49
-1.2
 74
     0
 49
0.7
 74
     0
 49
-1.2
 74
     0
  0
LTYPE
  5
9E
330
5
100
AcDbSymbolTableRecord
100
AcDbLinetypeTableRecord
  2
JIS_09_50
 70
     0
  3
2SASEN50 ____________　__  __  _____________
 72
    65
 73
     6
 40
55.0
 49
50.0
 74
     0
 49
-1.2
 74
     0
 49
0.7
 74
     0
 49
-1.2
 74
     0
 49
0.7
 74
     0
 49
-1.2
 74
     0
  0
LTYPE
  5
9F
330
5
100
AcDbSymbolTableRecord
100
AcDbLinetypeTableRecord
  2
SXF_破線
 70
     0
  3
02 dashed -- -- -- -- -- --
 72
    65
 73
     2
 40
7.5
 49
6.0
 74
     0
 49
-1.5
 74
     0
  0
LTYPE
  5
A0
330
5
100
AcDbSymbolTableRecord
100
AcDbLinetypeTableRecord
  2
SXF_跳び破線
 70
     0
  3
03 dashed_spaced --  --  --  --
 72
    65
 73
     2
 40
12.0
 49
6.0
 74
     0
 49
-6.0
 74
     0
  0
LTYPE
  5
A1
330
5
100
AcDbSymbolTableRecord
100
AcDbLinetypeTableRecord
  2
SXF_一点長鎖線
 70
     0
  3
04 long_dashed_dotted ---- . ---- . ----
 72
    65
 73
     4
 40
15.25
 49
12.0
 74
     0
 49
-1.5
 74
     0
 49
0.25
 74
     0
 49
-1.5
 74
     0
  0
LTYPE
  5
A2
330
5
100
AcDbSymbolTableRecord
100
AcDbLinetypeTableRecord
  2
SXF_二点長鎖線
 70
     0
  3
05 long_dashed_double-dotted ---- . . ---- 
 72
    65
 73
     6
 40
17.0
 49
12.0
 74
     0
 49
-1.5
 74
     0
 49
0.25
 74
     0
 49
-1.5
 74
     0
 49
0.25
 74
     0
 49
-1.5
 74
     0
  0
LTYPE
  5
A3
330
5
100
AcDbSymbolTableRecord
100
AcDbLinetypeTableRecord
  2
SXF_三点長鎖線
 70
     0
  3
06 long_dashed_triplicate-dotted ---- ... ---- 
 72
    65
 73
     8
 40
18.75
 49
12.0
 74
     0
 49
-1.5
 74
     0
 49
0.25
 74
     0
 49
-1.5
 74
     0
 49
0.25
 74
     0
 49
-1.5
 74
     0
 49
0.25
 74
     0
 49
-1.5
 74
     0
  0
LTYPE
  5
A4
330
5
100
AcDbSymbolTableRecord
100
AcDbLinetypeTableRecord
  2
SXF_点線
 70
     0
  3
07 dotted . . . . . . . . . . . . 
 72
    65
 73
     2
 40
1.75
 49
0.25
 74
     0
 49
-1.5
 74
     0
  0
LTYPE
  5
A5
330
5
100
AcDbSymbolTableRecord
100
AcDbLinetypeTableRecord
  2
SXF_一点鎖線
 70
     0
  3
08 chain ---- - --- - --- - ---
 72
    65
 73
     4
 40
18.5
 49
12.0
 74
     0
 49
-1.5
 74
     0
 49
3.5
 74
     0
 49
-1.5
 74
     0
  0
LTYPE
  5
A6
330
5
100
AcDbSymbolTableRecord
100
AcDbLinetypeTableRecord
  2
SXF_二点鎖線
 70
     0
  3
09 chain_double_dash ---- - - ---- - - ----
 72
    65
 73
     6
 40
23.5
 49
12.0
 74
     0
 49
-1.5
 74
     0
 49
3.5
 74
     0
 49
-1.5
 74
     0
 49
3.5
 74
     0
 49
-1.5
 74
     0
  0
LTYPE
  5
A7
330
5
100
AcDbSymbolTableRecord
100
AcDbLinetypeTableRecord
  2
SXF_一点短鎖線
 70
     0
  3
10 dashed_dotted -- . -- . -- . --
 72
    65
 73
     4
 40
9.25
 49
6.0
 74
     0
 49
-1.5
 74
     0
 49
0.25
 74
     0
 49
-1.5
 74
     0
  0
LTYPE
  5
A8
330
5
100
AcDbSymbolTableRecord
100
AcDbLinetypeTableRecord
  2
SXF_一点二短鎖線
 70
     0
  3
11 double-dashed_dotted -- -- . -- --
 72
    65
 73
     6
 40
16.75
 49
6.0
 74
     0
 49
-1.5
 74
     0
 49
6.0
 74
     0
 49
-1.5
 74
     0
 49
0.25
 74
     0
 49
-1.5
 74
     0
  0
LTYPE
  5
A9
330
5
100
AcDbSymbolTableRecord
100
AcDbLinetypeTableRecord
  2
SXF_二点短鎖線
 70
     0
  3
12 dashed_double_dotted -- . . -- . . --
 72
    65
 73
     6
 40
11.0
 49
6.0
 74
     0
 49
-1.5
 74
     0
 49
0.25
 74
     0
 49
-1.5
 74
     0
 49
0.25
 74
     0
 49
-1.5
 74
     0
  0
LTYPE
  5
AA
330
5
100
AcDbSymbolTableRecord
100
AcDbLinetypeTableRecord
  2
SXF_二点二短鎖線
 70
     0
  3
13 double-dashed_double-dotted -- -- . . -- --
 72
    65
 73
     8
 40
18.5
 49
6.0
 74
     0
 49
-1.5
 74
     0
 49
6.0
 74
     0
 49
-1.5
 74
     0
 49
0.25
 74
     0
 49
-1.5
 74
     0
 49
0.25
 74
     0
 49
-1.5
 74
     0
  0
LTYPE
  5
AB
330
5
100
AcDbSymbolTableRecord
100
AcDbLinetypeTableRecord
  2
SXF_三点短鎖線
 70
     0
  3
14 dashed triplicate-dotted -- . . . -- . . . --
 72
    65
 73
     8
 40
12.75
 49
6.0
 74
     0
 49
-1.5
 74
     0
 49
0.25
 74
     0
 49
-1.5
 74
     0
 49
0.25
 74
     0
 49
-1.5
 74
     0
 49
0.25
 74
     0
 49
-1.5
 74
     0
  0
LTYPE
  5
AC
330
5
100
AcDbSymbolTableRecord
100
AcDbLinetypeTableRecord
  2
SXF_三点二短鎖線
 70
     0
  3
15 double-dashed triplicate-dotted -- -- . . . -- -- 
 72
    65
 73
    10
 40
20.25
 49
6.0
 74
     0
 49
-1.5
 74
     0
 49
6.0
 74
     0
 49
-1.5
 74
     0
 49
0.25
 74
     0
 49
-1.5
 74
     0
 49
0.25
 74
     0
 49
-1.5
 74
     0
 49
0.25
 74
     0
 49
-1.5
 74
     0
  0
ENDTAB
  0
TABLE
  2
LAYER
  5
2
330
0
100
AcDbSymbolTable
 70
     2
  0
LAYER
  5
10
330
2
100
AcDbSymbolTableRecord
100
AcDbLayerTableRecord
  2
0
 70
     0
 62
     7
  6
Continuous
370
    -3
390
F
  0
LAYER
  5
AD
330
2
100
AcDbSymbolTableRecord
100
AcDbLayerTableRecord
  2
ZUWAKU
 70
     0
 62
     7
  6
Continuous
370
    -3
390
F
  0
ENDTAB
  0
TABLE
  2
STYLE
  5
3
330
0
100
AcDbSymbolTable
 70
     3
  0
STYLE
  5
11
330
3
100
AcDbSymbolTableRecord
100
AcDbTextStyleTableRecord
  2
Standard
 70
     0
 40
0.0
 41
1.0
 50
0.0
 71
     0
 42
0.2
  3
txt.shx
  4
bigfont.shx
  0
STYLE
  5
178
330
3
100
AcDbSymbolTableRecord
100
AcDbTextStyleTableRecord
  2
dcStyle0
 70
     0
 40
0.0
 41
0.77
 50
0.0
 71
     0
 42
0.2
  3
ＭＳ ゴシック
  4

1001
ACAD
1000
ＭＳ ゴシック
1071
    32802
  0
STYLE
  5
17A
330
3
100
AcDbSymbolTableRecord
100
AcDbTextStyleTableRecord
  2
dcStyle1
 70
     0
 40
0.0
 41
0.6160000000000001
 50
0.0
 71
     0
 42
0.2
  3
ＭＳ 明朝
  4

1001
ACAD
1000
ＭＳ 明朝
1071
    32802
  0
ENDTAB
  0
TABLE
  2
VIEW
  5
6
330
0
100
AcDbSymbolTable
 70
     0
  0
ENDTAB
  0
TABLE
  2
UCS
  5
7
330
0
100
AcDbSymbolTable
 70
     0
  0
ENDTAB
  0
TABLE
  2
APPID
  5
9
330
0
100
AcDbSymbolTable
 70
     2
  0
APPID
  5
12
330
9
100
AcDbSymbolTableRecord
100
AcDbRegAppTableRecord
  2
ACAD
 70
     0
  0
APPID
  5
6A
330
9
100
AcDbSymbolTableRecord
100
AcDbRegAppTableRecord
  2
DaFusionOut
 70
     0
  0
ENDTAB
  0
TABLE
  2
DIMSTYLE
  5
A
330
0
100
AcDbSymbolTable
 70
     1
100
AcDbDimStyleTable
  0
DIMSTYLE
105
27
330
A
100
AcDbSymbolTableRecord
100
AcDbDimStyleTableRecord
  2
Standard
 70
     0
178
     0
340
11
  0
ENDTAB
  0
TABLE
  2
BLOCK_RECORD
  5
1
330
0
100
AcDbSymbolTable
 70
    17
  0
BLOCK_RECORD
  5
1F
330
1
100
AcDbSymbolTableRecord
100
AcDbBlockTableRecord
  2
*Model_Space
340
22
  0
BLOCK_RECORD
  5
1B
330
1
100
AcDbSymbolTableRecord
100
AcDbBlockTableRecord
  2
*Paper_Space
340
1E
  0
BLOCK_RECORD
  5
23
330
1
100
AcDbSymbolTableRecord
100
AcDbBlockTableRecord
  2
*Paper_Space0
340
26
  0
BLOCK_RECORD
  5
AF
330
1
100
AcDbSymbolTableRecord
100
AcDbBlockTableRecord
  2
DC_GROUP_618H 戸当り帽子掛_1
340
0
102
{BLKREFS
331
177
102
}
  0
BLOCK_RECORD
  5
B2
330
1
100
AcDbSymbolTableRecord
100
AcDbBlockTableRecord
  2
DC_GROUP_618H 戸当り帽子掛_2
340
0
102
{BLKREFS
331
183
102
}
  0
BLOCK_RECORD
  5
B5
330
1
100
AcDbSymbolTableRecord
100
AcDbBlockTableRecord
  2
DC_GROUP_618H 戸当り帽子掛_3
340
0
102
{BLKREFS
331
DA
102
}
  0
BLOCK_RECORD
  5
B8
330
1
100
AcDbSymbolTableRecord
100
AcDbBlockTableRecord
  2
DC_GROUP_618H 戸当り帽子掛_4
340
0
102
{BLKREFS
331
E5
102
}
  0
BLOCK_RECORD
  5
BB
330
1
100
AcDbSymbolTableRecord
100
AcDbBlockTableRecord
  2
DC_FILL_GROUP_5
340
0
102
{BLKREFS
331
E6
102
}
  0
BLOCK_RECORD
  5
BE
330
1
100
AcDbSymbolTableRecord
100
AcDbBlockTableRecord
  2
DC_FILL_GROUP_6
340
0
102
{BLKREFS
331
E7
102
}
  0
BLOCK_RECORD
  5
C1
330
1
100
AcDbSymbolTableRecord
100
AcDbBlockTableRecord
  2
DC_FILL_GROUP_7
340
0
102
{BLKREFS
331
E8
102
}
  0
BLOCK_RECORD
  5
C4
330
1
100
AcDbSymbolTableRecord
100
AcDbBlockTableRecord
  2
DC_FILL_GROUP_8
340
0
102
{BLKREFS
331
E9
102
}
  0
BLOCK_RECORD
  5
C7
330
1
100
AcDbSymbolTableRecord
100
AcDbBlockTableRecord
  2
DC_GROUP_618H 戸当り帽子掛_9
340
0
102
{BLKREFS
331
DD
102
}
  0
BLOCK_RECORD
  5
CA
330
1
100
AcDbSymbolTableRecord
100
AcDbBlockTableRecord
  2
DC_GROUP_618H 戸当り帽子掛_10
340
0
102
{BLKREFS
331
13F
102
}
  0
BLOCK_RECORD
  5
CD
330
1
100
AcDbSymbolTableRecord
100
AcDbBlockTableRecord
  2
DC_FILL_GROUP_11
340
0
102
{BLKREFS
331
140
102
}
  0
BLOCK_RECORD
  5
D0
330
1
100
AcDbSymbolTableRecord
100
AcDbBlockTableRecord
  2
DC_GROUP_618H 戸当り帽子掛_12
340
0
102
{BLKREFS
331
184
102
}
  0
BLOCK_RECORD
  5
D3
330
1
100
AcDbSymbolTableRecord
100
AcDbBlockTableRecord
  2
DC_GROUP_618H 戸当り帽子掛_13
340
0
102
{BLKREFS
331
185
102
}
  0
BLOCK_RECORD
  5
D6
330
1
100
AcDbSymbolTableRecord
100
AcDbBlockTableRecord
  2
DC_GROUP_618H 戸当り帽子掛_14
340
0
102
{BLKREFS
331
186
102
}
  0
BLOCK_RECORD
  5
1E6
330
1
100
AcDbSymbolTableRecord
100
AcDbBlockTableRecord
  2
_OPEN30
340
0
102
{BLKREFS
331
1EC
331
1ED
331
1EF
331
1F0
331
1F2
331
1F3
331
1F5
331
1F6
331
1F8
331
1F9
331
1FB
331
1FC
331
1FE
331
1FF
331
201
331
202
331
20E
102
}
  0
BLOCK_RECORD
  5
204
330
1
100
AcDbSymbolTableRecord
100
AcDbBlockTableRecord
  2
_DOT
340
0
102
{BLKREFS
331
20C
102
}
  0
ENDTAB
  0
ENDSEC
  0
SECTION
  2
BLOCKS
  0
BLOCK
  5
20
330
1F
100
AcDbEntity
  8
0
100
AcDbBlockBegin
  2
*Model_Space
 70
     0
 10
0.0
 20
0.0
 30
0.0
  3
*Model_Space
  1
*Model_Space
  0
ENDBLK
  5
21
330
1F
100
AcDbEntity
  8
0
100
AcDbBlockEnd
  0
BLOCK
  5
1C
330
1B
100
AcDbEntity
 67
     1
  8
0
100
AcDbBlockBegin
  2
*Paper_Space
 70
     0
 10
0.0
 20
0.0
 30
0.0
  3
*Paper_Space
  1
*Paper_Space
  0
ENDBLK
  5
1D
330
1B
100
AcDbEntity
 67
     1
  8
0
100
AcDbBlockEnd
  0
BLOCK
  5
24
330
23
100
AcDbEntity
  8
0
100
AcDbBlockBegin
  2
*Paper_Space0
 70
     0
 10
0.0
 20
0.0
 30
0.0
  3
*Paper_Space0
  1
*Paper_Space0
  0
ENDBLK
  5
25
330
23
100
AcDbEntity
  8
0
100
AcDbBlockEnd
  0
BLOCK
  5
B0
330
AF
100
AcDbEntity
  8
0
100
AcDbBlockBegin
  2
DC_GROUP_618H 戸当り帽子掛_1
 70
     0
 10
0.0
 20
0.0
 30
0.0
  3
DC_GROUP_618H 戸当り帽子掛_1
  1
DC_GROUP_618H 戸当り帽子掛_1
  0
LINE
  5
D9
330
AF
100
AcDbEntity
  8
ZUWAKU
  6
Continuous
 62
     6
370
    25
100
AcDbLine
 10
-188.4
 20
131.4977303481027
 30
0.0
 11
-14.1929777645665
 21
131.4977303481027
 31
0.0
  0
ENDBLK
  5
B1
330
AF
100
AcDbEntity
  8
0
100
AcDbBlockEnd
  0
BLOCK
  5
B3
330
B2
100
AcDbEntity
  8
0
100
AcDbBlockBegin
  2
DC_GROUP_618H 戸当り帽子掛_2
 70
     0
 10
0.0
 20
0.0
 30
0.0
  3
DC_GROUP_618H 戸当り帽子掛_2
  1
DC_GROUP_618H 戸当り帽子掛_2
  0
INSERT
  5
DA
330
B2
100
AcDbEntity
  8
ZUWAKU
  6
Continuous
100
AcDbBlockReference
  2
DC_GROUP_618H 戸当り帽子掛_3
 10
0.0
 20
0.0
 30
0.0
  0
LINE
  5
DB
330
B2
100
AcDbEntity
  8
ZUWAKU
  6
Continuous
 62
     6
370
    25
100
AcDbLine
 10
5.699842558461039
 20
131.0977303481027
 30
0.0
 11
188.0
 21
131.0977303481027
 31
0.0
  0
LINE
  5
DC
330
B2
100
AcDbEntity
  8
ZUWAKU
  6
Continuous
 62
     6
370
    25
100
AcDbLine
 10
-188.0000000000001
 20
-137.9022696518972
 30
0.0
 11
-188.0
 21
131.0977303481027
 31
0.0
  0
INSERT
  5
DD
330
B2
100
AcDbEntity
  8
0
  6
Continuous
100
AcDbBlockReference
  2
DC_GROUP_618H 戸当り帽子掛_9
 10
0.0
 20
0.0
 30
0.0
  0
ENDBLK
  5
B4
330
B2
100
AcDbEntity
  8
0
100
AcDbBlockEnd
  0
BLOCK
  5
B6
330
B5
100
AcDbEntity
  8
0
100
AcDbBlockBegin
  2
DC_GROUP_618H 戸当り帽子掛_3
 70
     0
 10
0.0
 20
0.0
 30
0.0
  3
DC_GROUP_618H 戸当り帽子掛_3
  1
DC_GROUP_618H 戸当り帽子掛_3
  0
LINE
  5
DE
330
B5
100
AcDbEntity
  8
ZUWAKU
  6
Continuous
 62
     6
370
    18
100
AcDbLine
 10
-15.18729048293021
 20
127.7869047645574
 30
0.0
 11
4.812709517069791
 21
127.7869047645574
 31
0.0
  0
LINE
  5
DF
330
B5
100
AcDbEntity
  8
ZUWAKU
  6
Continuous
 62
     6
370
    18
100
AcDbLine
 10
-15.18729048293021
 20
127.7869047645574
 30
0.0
 11
4.812709517069791
 21
127.7869047645574
 31
0.0
  0
LINE
  5
E0
330
B5
100
AcDbEntity
  8
ZUWAKU
  6
Continuous
 62
     6
370
    18
100
AcDbLine
 10
-15.18729048293021
 20
127.7869047645574
 30
0.0
 11
-13.25805629742614
 21
134.9869047645574
 31
0.0
  0
LINE
  5
E1
330
B5
100
AcDbEntity
  8
ZUWAKU
  6
Continuous
 62
     6
370
    18
100
AcDbLine
 10
4.812709517069791
 20
127.7869047645574
 30
0.0
 11
6.741943702573863
 21
134.9869047645574
 31
0.0
  0
ARC
  5
E2
330
B5
100
AcDbEntity
  8
ZUWAKU
  6
Continuous
 62
     6
370
    18
100
AcDbCircle
 10
-3.258056297426137
 20
132.5638278414805
 30
0.0
 40
5.023076923076923
100
AcDbArc
 50
28.84154625502196
 51
151.1584537449781
  0
LINE
  5
E3
330
B5
100
AcDbEntity
  8
ZUWAKU
  6
Continuous
 62
     6
370
    18
100
AcDbLine
 10
1.141943702573869
 20
134.9869047645574
 30
0.0
 11
6.741943702573863
 21
134.9869047645574
 31
0.0
  0
LINE
  5
E4
330
B5
100
AcDbEntity
  8
ZUWAKU
  6
Continuous
 62
     6
370
    18
100
AcDbLine
 10
-13.25805629742614
 20
134.9869047645574
 30
0.0
 11
-7.658056297426128
 21
134.9869047645574
 31
0.0
  0
INSERT
  5
E5
330
B5
100
AcDbEntity
  8
ZUWAKU
  6
Continuous
100
AcDbBlockReference
  2
DC_GROUP_618H 戸当り帽子掛_4
 10
0.0
 20
0.0
 30
0.0
  0
INSERT
  5
E6
330
B5
100
AcDbEntity
  8
ZUWAKU
  6
Continuous
100
AcDbBlockReference
  2
DC_FILL_GROUP_5
 10
0.0
 20
0.0
 30
0.0
  0
INSERT
  5
E7
330
B5
100
AcDbEntity
  8
ZUWAKU
  6
Continuous
100
AcDbBlockReference
  2
DC_FILL_GROUP_6
 10
0.0
 20
0.0
 30
0.0
  0
INSERT
  5
E8
330
B5
100
AcDbEntity
  8
ZUWAKU
  6
Continuous
100
AcDbBlockReference
  2
DC_FILL_GROUP_7
 10
0.0
 20
0.0
 30
0.0
  0
INSERT
  5
E9
330
B5
100
AcDbEntity
  8
ZUWAKU
  6
Continuous
100
AcDbBlockReference
  2
DC_FILL_GROUP_8
 10
0.0
 20
0.0
 30
0.0
  0
HATCH
  5
EA
330
B5
100
AcDbEntity
  8
ZUWAKU
 62
     6
100
AcDbHatch
 10
0.0
 20
0.0
 30
0.0
210
0.0
220
0.0
230
1.0
  2
SOLID
 70
     1
 71
     0
 91
        2
 92
        0
 93
        7
 72
     1
 10
-10.61644406058091
 20
133.081680337099
 11
-9.148769632821281
 21
133.081680337099
 72
     2
 10
-9.214615370495471
 20
132.6706558095067
 40
0.4162653281889734
 50
279.101396467581
 51
341.8598114989512
 73
     0
 72
     2
 10
-9.458184903820401
 20
132.6210539412675
 40
0.6637926737302501
 50
344.3376004792017
 51
377.2813944566045
 73
     0
 72
     2
 10
-9.796034832635987
 20
132.7006073304519
 40
1.010318374566457
 50
15.89745315179078
 51
49.94045683781776
 73
     0
 72
     2
 10
-9.66924191206301
 20
132.5212802327218
 40
0.7916770020377544
 50
48.61101998666827
 51
81.33918089668116
 73
     0
 72
     1
 10
-9.550027375135045
 20
131.7386306497407
 11
-10.97631313970343
 21
131.7386306497407
 72
     1
 10
-10.97631313970343
 20
131.7386306497407
 11
-10.61644406058091
 21
133.081680337099
 97
        0
 92
        0
 93
        7
 72
     1
 10
-11.10883290111839
 20
131.2440601671332
 11
-9.790267383885867
 21
131.2440601671332
 72
     2
 10
-9.796303065688356
 20
130.6394317120964
 40
0.6046585797745943
 50
270.5719340607648
 51
313.3452220316362
 73
     0
 72
     2
 10
-9.81044415134673
 20
130.6974914522775
 40
0.574334497943418
 50
318.3531395132113
 51
368.8750120922202
 73
     0
 72
     2
 10
-10.27470825576618
 20
130.7236010828962
 40
1.038080399406426
 50
6.34468265029667
 51
45.39248346201526
 73
     0
 72
     2
 10
-10.22628606091733
 20
130.6563359917389
 40
0.9562729630134257
 50
44.62774037308801
 51
85.94856699901332
 73
     0
 72
     1
 10
-10.15872352661223
 20
129.7024527264759
 11
-11.52190536988831
 21
129.7024527264759
 72
     1
 10
-11.52190536988831
 20
129.7024527264759
 11
-11.10883290111839
 21
131.2440601671332
 97
        0
 75
     0
 76
     1
 98
        0
  0
HATCH
  5
EB
330
B5
100
AcDbEntity
  8
ZUWAKU
 62
     6
100
AcDbHatch
 10
0.0
 20
0.0
 30
0.0
210
0.0
220
0.0
230
1.0
  2
SOLID
 70
     1
 71
     0
 91
        1
 92
        0
 93
       12
 72
     1
 10
-6.793335074500064
 20
133.5254744099523
 11
-4.06388643049422
 21
133.5254744099523
 72
     1
 10
-4.06388643049422
 20
133.5254744099523
 11
-4.183074453479151
 21
133.0806586525188
 72
     1
 10
-4.183074453479151
 20
133.0806586525188
 11
-6.31491778350299
 21
133.0806586525188
 72
     1
 10
-6.31491778350299
 20
133.0806586525188
 11
-6.67831224361777
 21
131.7244520641814
 72
     1
 10
-6.67831224361777
 20
131.7244520641814
 11
-4.687965074339083
 21
131.7244520641814
 72
     1
 10
-4.687965074339083
 20
131.7244520641814
 11
-4.822471841115888
 21
131.2224659766085
 72
     1
 10
-4.822471841115888
 20
131.2224659766085
 11
-6.812819010394575
 21
131.2224659766085
 72
     1
 10
-6.812819010394575
 20
131.2224659766085
 11
-7.224346239903107
 21
129.6866254473846
 72
     1
 10
-7.224346239903107
 20
129.6866254473846
 11
-5.092502909879268
 21
129.6866254473846
 72
     1
 10
-5.092502909879268
 20
129.6866254473846
 11
-5.206494156524529
 21
129.2612043232864
 72
     1
 10
-5.206494156524529
 20
129.2612043232864
 11
-7.935371758038853
 21
129.2633354828951
 72
     1
 10
-7.935371758038853
 20
129.2633354828951
 11
-6.793335074500064
 21
133.5254744099523
 97
        0
 75
     0
 76
     1
 98
        0
  0
HATCH
  5
EC
330
B5
100
AcDbEntity
  8
ZUWAKU
 62
     6
100
AcDbHatch
 10
0.0
 20
0.0
 30
0.0
210
0.0
220
0.0
230
1.0
  2
SOLID
 70
     1
 71
     0
 91
        1
 92
        0
 93
       30
 72
     1
 10
-3.78690972180226
 20
130.5224816688588
 11
-3.224583528464573
 21
130.5224816688588
 72
     2
 10
-0.7834995687350994
 20
129.9471183586793
 40
2.50797405033412
 50
166.7374506696342
 51
174.0346960170799
 73
     1
 72
     2
 10
-2.859513642208555
 20
130.1334558390303
 40
0.4249267598038105
 50
169.9289351766546
 51
229.7688796832028
 73
     1
 72
     2
 10
-2.666761737496481
 20
130.3875292655661
 40
0.7435841409637962
 50
231.0745478687068
 51
262.6716666561709
 73
     1
 72
     2
 10
-2.422436317866786
 20
131.4537938908353
 40
1.835386079784519
 50
259.3507178335936
 51
286.2294064476557
 73
     1
 72
     2
 10
-2.153509175754112
 20
130.5924258088115
 40
0.9333459318929238
 50
285.1567838305783
 51
336.8654773103671
 73
     1
 72
     2
 10
-1.728523901164363
 20
130.3758570214736
 40
0.4585784011879434
 50
340.8894722365171
 51
392.6647144674489
 73
     1
 72
     2
 10
-1.862092629016691
 20
130.2253186631512
 40
0.654555745366824
 50
37.4531125804551
 51
51.10339143266309
 73
     1
 72
     2
 10
-2.632602625983446
 20
129.2468346376588
 40
1.89996405303543
 50
51.54771738514115
 51
61.04207824187351
 73
     1
 72
     1
 10
-1.712702415929059
 20
130.909256667821
 11
-2.857637180679363
 21
131.5608465538943
 72
     2
 10
-2.606641010930637
 20
132.1068388480489
 40
0.6009215111016437
 50
114.6885460662001
 51
173.6067558985703
 73
     0
 72
     2
 10
-1.809879857684515
 20
132.094259640641
 40
1.395004113623998
 50
177.7678039195354
 51
219.749472941094
 73
     0
 72
     2
 10
-1.712882617490692
 20
132.048339570572
 40
1.499181071149208
 50
218.7283245909845
 51
258.8091158160378
 73
     0
 72
     2
 10
-1.476092526492434
 20
130.9420584126249
 40
2.630442027257921
 50
258.4261314493467
 51
281.661165410633
 73
     0
 72
     2
 10
-1.07571535671465
 20
132.6637227764344
 40
0.8645138922101454
 50
278.735536649605
 51
379.106672884661
 73
     0
 72
     1
 10
-0.2588268460625014
 20
132.3807432171216
 11
-0.828889824710989
 21
132.3807432171216
 72
     2
 10
-1.369157678896155
 20
132.5661083324822
 40
0.5711826155079285
 50
341.0629799776079
 51
387.6071696008514
 73
     1
 72
     2
 10
-1.31851948913621
 20
132.5433184379326
 40
0.5386432608505282
 50
32.25654187658522
 51
80.51431194909222
 73
     1
 72
     2
 10
-1.557756208703897
 20
131.3632260160056
 40
1.742520441859646
 50
79.15011896131766
 51
108.0664376272099
 73
     1
 72
     2
 10
-1.833441979590594
 20
132.2918451530955
 40
0.7746216927719662
 50
109.9817183681289
 51
173.1724334146028
 73
     1
 72
     2
 10
-2.283262736295183
 20
132.32551277749
 40
0.3246080018075697
 50
169.6318053873936
 51
229.3606448632574
 73
     1
 72
     1
 10
-2.494678496184883
 20
132.0791923940303
 11
-1.108454353672086
 21
131.2797391624018
 72
     2
 10
-1.533132723280254
 20
130.5371454429522
 40
0.8554514304032861
 50
299.7646008998901
 51
324.2724832207935
 73
     0
 72
     2
 10
-1.405876864626978
 20
130.5560446692498
 40
0.7434509898745061
 50
319.7233371318061
 51
372.8486294546467
 73
     0
 72
     2
 10
-1.868903466724453
 20
130.5901924075046
 40
1.204494288996884
 50
9.532534887747325
 51
49.40615071678932
 73
     0
 72
     2
 10
-1.938069692842912
 20
130.517858724981
 40
1.198718270853014
 50
44.64060832750974
 51
63.21947441975042
 73
     0
 72
     2
 10
-2.345970515417255
 20
131.3504893434705
 40
2.125858195144981
 50
63.51629194665468
 51
89.83153432827561
 73
     0
 72
     2
 10
-2.537347971461981
 20
132.5227850078217
 40
3.304060398726554
 50
86.57088082813499
 51
99.59550348876685
 73
     0
 72
     2
 10
-2.963001710900193
 20
130.2116731678471
 40
0.9549520550140204
 50
97.52773837286186
 51
155.7356128656445
 73
     0
 72
     2
 10
-2.558254893119924
 20
130.087750101634
 40
1.30329744248432
 50
168.1104689066824
 51
199.4851673102285
 73
     0
 97
        0
 75
     0
 76
     1
 98
        0
  0
HATCH
  5
ED
330
B5
100
AcDbEntity
  8
ZUWAKU
 62
     6
100
AcDbHatch
 10
0.0
 20
0.0
 30
0.0
210
0.0
220
0.0
230
1.0
  2
SOLID
 70
     1
 71
     0
 91
        1
 92
        0
 93
        8
 72
     1
 10
0.8840602143685317
 20
133.5257500175911
 11
4.28182652491876
 21
133.5257500175911
 72
     1
 10
4.28182652491876
 20
133.5257500175911
 11
4.162114952616179
 21
133.0789803475039
 72
     1
 10
4.162114952616179
 20
133.0789803475039
 11
2.752636490468075
 21
133.0789803475039
 72
     1
 10
2.752636490468075
 20
133.0789803475039
 11
1.728354297797434
 21
129.256307163169
 72
     1
 10
1.728354297797434
 20
129.256307163169
 11
1.153476913781705
 21
129.256307163169
 72
     1
 10
1.153476913781705
 20
129.256307163169
 11
2.177759106452345
 21
133.0789803475039
 72
     1
 10
2.177759106452345
 20
133.0789803475039
 11
0.7643486420659484
 21
133.0789803475039
 72
     1
 10
0.7643486420659485
 20
133.0789803475039
 11
0.8840602143685317
 21
133.5257500175911
 97
        0
 75
     0
 76
     1
 98
        0
  0
ENDBLK
  5
B7
330
B5
100
AcDbEntity
  8
0
100
AcDbBlockEnd
  0
BLOCK
  5
B9
330
B8
100
AcDbEntity
  8
0
100
AcDbBlockBegin
  2
DC_GROUP_618H 戸当り帽子掛_4
 70
     0
 10
0.0
 20
0.0
 30
0.0
  3
DC_GROUP_618H 戸当り帽子掛_4
  1
DC_GROUP_618H 戸当り帽子掛_4
  0
LINE
  5
EE
330
B8
100
AcDbEntity
  8
ZUWAKU
  6
Continuous
 62
     6
370
    18
100
AcDbLine
 10
-12.95112550223455
 20
134.5869047645574
 30
0.0
 11
-7.414978235591434
 21
134.5869047645574
 31
0.0
  0
ARC
  5
EF
330
B8
100
AcDbEntity
  8
ZUWAKU
  6
Continuous
 62
     6
370
    18
100
AcDbCircle
 10
-3.258056297426137
 20
132.5638278414805
 30
0.0
 40
4.623076923076923
100
AcDbArc
 50
25.95110613512598
 51
154.048893864874
  0
LINE
  5
F0
330
B8
100
AcDbEntity
  8
ZUWAKU
  6
Continuous
 62
     6
370
    18
100
AcDbLine
 10
0.8988656407391744
 20
134.5869047645574
 30
0.0
 11
6.220653553437387
 21
134.5869047645574
 31
0.0
  0
LINE
  5
F1
330
B8
100
AcDbEntity
  8
ZUWAKU
  6
Continuous
 62
     6
370
    18
100
AcDbLine
 10
6.220653553437387
 20
134.5869047645574
 30
0.0
 11
4.505778721878201
 21
128.1869047645574
 31
0.0
  0
LINE
  5
F2
330
B8
100
AcDbEntity
  8
ZUWAKU
  6
Continuous
 62
     6
370
    18
100
AcDbLine
 10
4.505778721878201
 20
128.1869047645574
 30
0.0
 11
-14.66600033379373
 21
128.1869047645574
 31
0.0
  0
LINE
  5
F3
330
B8
100
AcDbEntity
  8
ZUWAKU
  6
Continuous
 62
     6
370
    18
100
AcDbLine
 10
-14.66600033379373
 20
128.1869047645574
 30
0.0
 11
-12.95112550223455
 21
134.5869047645574
 31
0.0
  0
ENDBLK
  5
BA
330
B8
100
AcDbEntity
  8
0
100
AcDbBlockEnd
  0
BLOCK
  5
BC
330
BB
100
AcDbEntity
  8
0
100
AcDbBlockBegin
  2
DC_FILL_GROUP_5
 70
     0
 10
0.0
 20
0.0
 30
0.0
  3
DC_FILL_GROUP_5
  1
DC_FILL_GROUP_5
  0
LINE
  5
F4
330
BB
100
AcDbEntity
  8
ZUWAKU
  6
Continuous
 62
     6
370
    18
100
AcDbLine
 10
-11.09005816370822
 20
133.5251988023135
 30
0.0
 11
-12.23122901015888
 21
129.2662912232432
 31
0.0
  0
LINE
  5
F5
330
BB
100
AcDbEntity
  8
ZUWAKU
  6
Continuous
 62
     6
370
    18
100
AcDbLine
 10
-10.6164440605809
 20
133.0816803370989
 30
0.0
 11
-9.14876963282127
 21
133.0816803370989
 31
0.0
  0
LINE
  5
F6
330
BB
100
AcDbEntity
  8
ZUWAKU
  6
Continuous
 62
     6
370
    18
100
AcDbLine
 10
-10.97631313970342
 20
131.7386306497407
 30
0.0
 11
-9.550027375135045
 21
131.7386306497407
 31
0.0
  0
LINE
  5
F7
330
BB
100
AcDbEntity
  8
ZUWAKU
  6
Continuous
 62
     6
370
    18
100
AcDbLine
 10
-11.10883290111838
 20
131.2440601671331
 30
0.0
 11
-9.790267383885862
 21
131.2440601671331
 31
0.0
  0
LINE
  5
F8
330
BB
100
AcDbEntity
  8
ZUWAKU
  6
Continuous
 62
     6
370
    18
100
AcDbLine
 10
-11.5219053698883
 20
129.7024527264759
 30
0.0
 11
-10.15872352661222
 21
129.7024527264759
 31
0.0
  0
LINE
  5
F9
330
BB
100
AcDbEntity
  8
ZUWAKU
  6
Continuous
 62
     6
370
    18
100
AcDbLine
 10
-12.23122901015888
 20
129.2662912232432
 30
0.0
 11
-10.16519154196168
 21
129.2662912232432
 31
0.0
  0
LINE
  5
FA
330
BB
100
AcDbEntity
  8
ZUWAKU
  6
Continuous
 62
     6
370
    18
100
AcDbLine
 10
-11.09005816370822
 20
133.5251988023135
 30
0.0
 11
-9.008532940668204
 21
133.5251988023135
 31
0.0
  0
LINE
  5
FB
330
BB
100
AcDbEntity
  8
ZUWAKU
  6
Continuous
 62
     6
370
    18
100
AcDbLine
 10
-10.6164264363961
 20
133.0817461114521
 30
0.0
 11
-10.97631313970342
 21
131.7386306497407
 31
0.0
  0
LINE
  5
FC
330
BB
100
AcDbEntity
  8
ZUWAKU
  6
Continuous
 62
     6
370
    18
100
AcDbLine
 10
-11.10883290111838
 20
131.2440601671331
 30
0.0
 11
-11.5219053698883
 21
129.7024527264759
 31
0.0
  0
ARC
  5
FD
330
BB
100
AcDbEntity
  8
ZUWAKU
  6
Continuous
 62
     6
370
    25
100
AcDbCircle
 10
-9.002622178133166
 20
132.6785087326828
 30
0.0
 40
0.8467107009627803
100
AcDbArc
 50
36.60229733366693
 51
90.39997663577897
  0
ARC
  5
FE
330
BB
100
AcDbEntity
  8
ZUWAKU
  6
Continuous
 62
     6
370
    25
100
AcDbCircle
 10
-8.925577248175813
 20
132.7881680315858
 30
0.0
 40
0.7207048013734642
100
AcDbArc
 50
359.9092480053928
 51
33.25383823050022
  0
ARC
  5
FF
330
BB
100
AcDbEntity
  8
ZUWAKU
  6
Continuous
 62
     6
370
    25
100
AcDbCircle
 10
-9.536471115343986
 20
132.7808171941425
 30
0.0
 40
1.331618957837778
100
AcDbArc
 50
312.67901524403
 51
0.6894022979390294
  0
ARC
  5
100
330
BB
100
AcDbEntity
  8
ZUWAKU
  6
Continuous
 62
     6
370
    25
100
AcDbCircle
 10
-9.683317700826038
 20
132.9921228479682
 30
0.0
 40
1.586901292237804
100
AcDbArc
 50
289.646728879067
 51
311.4048962840303
  0
ARC
  5
101
330
BB
100
AcDbEntity
  8
ZUWAKU
  6
Continuous
 62
     6
370
    25
100
AcDbCircle
 10
-9.370919407783049
 20
130.8008571052884
 30
0.0
 40
0.7310027855036054
100
AcDbArc
 50
15.48798517877331
 51
72.39045551596023
  0
ARC
  5
102
330
BB
100
AcDbEntity
  8
ZUWAKU
  6
Continuous
 62
     6
370
    25
100
AcDbCircle
 10
-9.770458699227675
 20
130.7361456582713
 30
0.0
 40
1.134180359811863
100
AcDbArc
 50
333.5932683206109
 51
13.24798338764212
  0
ARC
  5
103
330
BB
100
AcDbEntity
  8
ZUWAKU
  6
Continuous
 62
     6
370
    25
100
AcDbCircle
 10
-10.24940349796647
 20
130.8538501593707
 30
0.0
 40
1.619078012600534
100
AcDbArc
 50
308.3521588912623
 51
337.4032107594748
  0
ARC
  5
104
330
BB
100
AcDbEntity
  8
ZUWAKU
  6
Continuous
 62
     6
370
    25
100
AcDbCircle
 10
-10.15568308085626
 20
130.730297248174
 30
0.0
 40
1.464036902494674
100
AcDbArc
 50
269.6278792425639
 51
308.4761041721405
  0
ARC
  5
105
330
BB
100
AcDbEntity
  8
ZUWAKU
  6
Continuous
 62
     6
370
    25
100
AcDbCircle
 10
-9.214615370495466
 20
132.6706558095067
 30
0.0
 40
0.4162653281889734
100
AcDbArc
 50
18.14018850104889
 51
80.89860353241913
  0
ARC
  5
106
330
BB
100
AcDbEntity
  8
ZUWAKU
  6
Continuous
 62
     6
370
    25
100
AcDbCircle
 10
-9.458184903820396
 20
132.6210539412674
 30
0.0
 40
0.6637926737302501
100
AcDbArc
 50
342.718605543397
 51
15.66239952079831
  0
ARC
  5
107
330
BB
100
AcDbEntity
  8
ZUWAKU
  6
Continuous
 62
     6
370
    25
100
AcDbCircle
 10
-9.796034832635982
 20
132.7006073304519
 30
0.0
 40
1.010318374566457
100
AcDbArc
 50
310.0595431621818
 51
344.1025468482097
  0
ARC
  5
108
330
BB
100
AcDbEntity
  8
ZUWAKU
  6
Continuous
 62
     6
370
    25
100
AcDbCircle
 10
-9.669241912063
 20
132.5212802327218
 30
0.0
 40
0.7916770020377544
100
AcDbArc
 50
278.6608191033192
 51
311.3889800133315
  0
ARC
  5
109
330
BB
100
AcDbEntity
  8
ZUWAKU
  6
Continuous
 62
     6
370
    25
100
AcDbCircle
 10
-9.796303065688349
 20
130.6394317120963
 30
0.0
 40
0.6046585797745943
100
AcDbArc
 50
46.65477796836485
 51
89.4280659392352
  0
ARC
  5
10A
330
BB
100
AcDbEntity
  8
ZUWAKU
  6
Continuous
 62
     6
370
    25
100
AcDbCircle
 10
-9.81044415134673
 20
130.6974914522774
 30
0.0
 40
0.574334497943418
100
AcDbArc
 50
351.1249879077801
 51
41.6468604867896
  0
ARC
  5
10B
330
BB
100
AcDbEntity
  8
ZUWAKU
  6
Continuous
 62
     6
370
    25
100
AcDbCircle
 10
-10.27470825576617
 20
130.7236010828962
 30
0.0
 40
1.038080399406426
100
AcDbArc
 50
314.6075165379853
 51
353.655317349704
  0
ARC
  5
10C
330
BB
100
AcDbEntity
  8
ZUWAKU
  6
Continuous
 62
     6
370
    25
100
AcDbCircle
 10
-10.22628606091732
 20
130.6563359917389
 30
0.0
 40
0.9562729630134257
100
AcDbArc
 50
274.0514330009866
 51
315.3722596269116
  0
ENDBLK
  5
BD
330
BB
100
AcDbEntity
  8
0
100
AcDbBlockEnd
  0
BLOCK
  5
BF
330
BE
100
AcDbEntity
  8
0
100
AcDbBlockBegin
  2
DC_FILL_GROUP_6
 70
     0
 10
0.0
 20
0.0
 30
0.0
  3
DC_FILL_GROUP_6
  1
DC_FILL_GROUP_6
  0
LINE
  5
10D
330
BE
100
AcDbEntity
  8
ZUWAKU
  6
Continuous
 62
     6
370
    18
100
AcDbLine
 10
-5.206494156524528
 20
129.2612043232864
 30
0.0
 11
-7.935371758038855
 21
129.2633354828952
 31
0.0
  0
LINE
  5
10E
330
BE
100
AcDbEntity
  8
ZUWAKU
  6
Continuous
 62
     6
370
    18
100
AcDbLine
 10
-6.314917783502992
 20
133.0806586525188
 30
0.0
 11
-4.183074453479151
 21
133.0806586525188
 31
0.0
  0
LINE
  5
10F
330
BE
100
AcDbEntity
  8
ZUWAKU
  6
Continuous
 62
     6
370
    18
100
AcDbLine
 10
-4.68796507433909
 20
131.7244520641814
 30
0.0
 11
-4.822471841115899
 21
131.2224659766085
 31
0.0
  0
LINE
  5
110
330
BE
100
AcDbEntity
  8
ZUWAKU
  6
Continuous
 62
     6
370
    18
100
AcDbLine
 10
-6.793335074500064
 20
133.5254744099523
 30
0.0
 11
-4.063886430494222
 21
133.5254744099523
 31
0.0
  0
LINE
  5
111
330
BE
100
AcDbEntity
  8
ZUWAKU
  6
Continuous
 62
     6
370
    18
100
AcDbLine
 10
-6.793335074504654
 20
133.5254744099523
 30
0.0
 11
-7.935371758038855
 21
129.2633354828952
 31
0.0
  0
LINE
  5
112
330
BE
100
AcDbEntity
  8
ZUWAKU
  6
Continuous
 62
     6
370
    18
100
AcDbLine
 10
-4.063886430494222
 20
133.5254744099523
 30
0.0
 11
-4.183074453479151
 21
133.0806586525188
 31
0.0
  0
LINE
  5
113
330
BE
100
AcDbEntity
  8
ZUWAKU
  6
Continuous
 62
     6
370
    18
100
AcDbLine
 10
-5.092502909879272
 20
129.6866254473846
 30
0.0
 11
-5.206494156524528
 21
129.2612043232864
 31
0.0
  0
LINE
  5
114
330
BE
100
AcDbEntity
  8
ZUWAKU
  6
Continuous
 62
     6
370
    18
100
AcDbLine
 10
-6.314917783502992
 20
133.0806586525188
 30
0.0
 11
-6.678312243617782
 21
131.7244520641814
 31
0.0
  0
LINE
  5
115
330
BE
100
AcDbEntity
  8
ZUWAKU
  6
Continuous
 62
     6
370
    18
100
AcDbLine
 10
-6.812819010394577
 20
131.2224659766085
 30
0.0
 11
-7.224346239903113
 21
129.6866254473846
 31
0.0
  0
LINE
  5
116
330
BE
100
AcDbEntity
  8
ZUWAKU
  6
Continuous
 62
     6
370
    25
100
AcDbLine
 10
-5.092502909879272
 20
129.6866254473846
 30
0.0
 11
-7.224346239903127
 21
129.6866254473846
 31
0.0
  0
LINE
  5
117
330
BE
100
AcDbEntity
  8
ZUWAKU
  6
Continuous
 62
     6
370
    25
100
AcDbLine
 10
-6.812819010394577
 20
131.2224659766085
 30
0.0
 11
-4.822471841115899
 21
131.2224659766085
 31
0.0
  0
LINE
  5
118
330
BE
100
AcDbEntity
  8
ZUWAKU
  6
Continuous
 62
     6
370
    25
100
AcDbLine
 10
-6.678312243617597
 20
131.7244520641814
 30
0.0
 11
-4.68796507433909
 21
131.7244520641814
 31
0.0
  0
ENDBLK
  5
C0
330
BE
100
AcDbEntity
  8
0
100
AcDbBlockEnd
  0
BLOCK
  5
C2
330
C1
100
AcDbEntity
  8
0
100
AcDbBlockBegin
  2
DC_FILL_GROUP_7
 70
     0
 10
0.0
 20
0.0
 30
0.0
  3
DC_FILL_GROUP_7
  1
DC_FILL_GROUP_7
  0
LINE
  5
119
330
C1
100
AcDbEntity
  8
ZUWAKU
  6
Continuous
 62
     6
370
    25
100
AcDbLine
 10
-3.224583528464578
 20
130.5224816688588
 30
0.0
 11
-3.78690972180226
 21
130.5224816688588
 31
0.0
  0
LINE
  5
11A
330
C1
100
AcDbEntity
  8
ZUWAKU
  6
Continuous
 62
     6
370
    25
100
AcDbLine
 10
-0.8288898247109984
 20
132.3807432171216
 30
0.0
 11
-0.2588268460625045
 21
132.3807432171216
 31
0.0
  0
ARC
  5
11B
330
C1
100
AcDbEntity
  8
ZUWAKU
  6
Continuous
 62
     6
370
    25
100
AcDbCircle
 10
-0.7834995687351096
 20
129.9471183586792
 30
0.0
 40
2.50797405033412
100
AcDbArc
 50
166.7374506696339
 51
174.0346960170794
  0
ARC
  5
11C
330
C1
100
AcDbEntity
  8
ZUWAKU
  6
Continuous
 62
     6
370
    25
100
AcDbCircle
 10
-2.859513642208555
 20
130.1334558390303
 30
0.0
 40
0.4249267598038105
100
AcDbArc
 50
169.9289351766524
 51
229.7688796832034
  0
ARC
  5
11D
330
C1
100
AcDbEntity
  8
ZUWAKU
  6
Continuous
 62
     6
370
    25
100
AcDbCircle
 10
-2.666761737496486
 20
130.3875292655661
 30
0.0
 40
0.7435841409637962
100
AcDbArc
 50
231.0745478687071
 51
262.6716666561708
  0
ARC
  5
11E
330
C1
100
AcDbEntity
  8
ZUWAKU
  6
Continuous
 62
     6
370
    25
100
AcDbCircle
 10
-2.422436317866783
 20
131.4537938908353
 30
0.0
 40
1.835386079784519
100
AcDbArc
 50
259.3507178335936
 51
286.2294064476557
  0
ARC
  5
11F
330
C1
100
AcDbEntity
  8
ZUWAKU
  6
Continuous
 62
     6
370
    25
100
AcDbCircle
 10
-2.15350917575411
 20
130.5924258088115
 30
0.0
 40
0.9333459318929238
100
AcDbArc
 50
285.1567838305781
 51
336.8654773103665
  0
ARC
  5
120
330
C1
100
AcDbEntity
  8
ZUWAKU
  6
Continuous
 62
     6
370
    25
100
AcDbCircle
 10
-1.728523901164365
 20
130.3758570214736
 30
0.0
 40
0.4585784011879434
100
AcDbArc
 50
340.8894722365158
 51
32.66471446744971
  0
ARC
  5
121
330
C1
100
AcDbEntity
  8
ZUWAKU
  6
Continuous
 62
     6
370
    25
100
AcDbCircle
 10
-1.862092629016701
 20
130.2253186631512
 30
0.0
 40
0.654555745366824
100
AcDbArc
 50
37.45311258045549
 51
51.10339143266279
  0
LINE
  5
122
330
C1
100
AcDbEntity
  8
ZUWAKU
  6
Continuous
 62
     6
370
    25
100
AcDbLine
 10
-1.712702415929058
 20
130.909256667821
 30
0.0
 11
-2.857637180679362
 21
131.5608465538943
 31
0.0
  0
ARC
  5
123
330
C1
100
AcDbEntity
  8
ZUWAKU
  6
Continuous
 62
     6
370
    25
100
AcDbCircle
 10
-2.632602625983452
 20
129.2468346376588
 30
0.0
 40
1.89996405303543
100
AcDbArc
 50
51.54771738514115
 51
61.04207824187367
  0
ARC
  5
124
330
C1
100
AcDbEntity
  8
ZUWAKU
  6
Continuous
 62
     6
370
    25
100
AcDbCircle
 10
-2.606641010930645
 20
132.1068388480489
 30
0.0
 40
0.6009215111016437
100
AcDbArc
 50
186.3932441014288
 51
245.3114539337998
  0
ARC
  5
125
330
C1
100
AcDbEntity
  8
ZUWAKU
  6
Continuous
 62
     6
370
    25
100
AcDbCircle
 10
-1.809879857684521
 20
132.094259640641
 30
0.0
 40
1.395004113623998
100
AcDbArc
 50
140.2505270589059
 51
182.232196080464
  0
ARC
  5
126
330
C1
100
AcDbEntity
  8
ZUWAKU
  6
Continuous
 62
     6
370
    25
100
AcDbCircle
 10
-1.712882617490692
 20
132.048339570572
 30
0.0
 40
1.499181071149208
100
AcDbArc
 50
101.1908841839622
 51
141.2716754090158
  0
ARC
  5
127
330
C1
100
AcDbEntity
  8
ZUWAKU
  6
Continuous
 62
     6
370
    25
100
AcDbCircle
 10
-1.476092526492437
 20
130.9420584126249
 30
0.0
 40
2.630442027257921
100
AcDbArc
 50
78.33883458936698
 51
101.5738685506533
  0
ARC
  5
128
330
C1
100
AcDbEntity
  8
ZUWAKU
  6
Continuous
 62
     6
370
    25
100
AcDbCircle
 10
-1.075715356714653
 20
132.6637227764344
 30
0.0
 40
0.8645138922101454
100
AcDbArc
 50
340.8933271153405
 51
81.26446335039515
  0
ARC
  5
129
330
C1
100
AcDbEntity
  8
ZUWAKU
  6
Continuous
 62
     6
370
    25
100
AcDbCircle
 10
-1.369157678896158
 20
132.5661083324822
 30
0.0
 40
0.5711826155079285
100
AcDbArc
 50
341.0629799776098
 51
27.6071696008516
  0
ARC
  5
12A
330
C1
100
AcDbEntity
  8
ZUWAKU
  6
Continuous
 62
     6
370
    25
100
AcDbCircle
 10
-1.318519489136207
 20
132.5433184379326
 30
0.0
 40
0.5386432608505282
100
AcDbArc
 50
32.25654187658523
 51
80.51431194909236
  0
ARC
  5
12B
330
C1
100
AcDbEntity
  8
ZUWAKU
  6
Continuous
 62
     6
370
    25
100
AcDbCircle
 10
-1.557756208703907
 20
131.3632260160056
 30
0.0
 40
1.742520441859646
100
AcDbArc
 50
79.15011896131765
 51
108.0664376272098
  0
ARC
  5
12C
330
C1
100
AcDbEntity
  8
ZUWAKU
  6
Continuous
 62
     6
370
    25
100
AcDbCircle
 10
-1.833441979590603
 20
132.2918451530955
 30
0.0
 40
0.7746216927719662
100
AcDbArc
 50
109.9817183681286
 51
173.1724334146036
  0
ARC
  5
12D
330
C1
100
AcDbEntity
  8
ZUWAKU
  6
Continuous
 62
     6
370
    25
100
AcDbCircle
 10
-2.283262736295185
 20
132.32551277749
 30
0.0
 40
0.3246080018075697
100
AcDbArc
 50
169.6318053873956
 51
230.4161863131162
  0
LINE
  5
12E
330
C1
100
AcDbEntity
  8
ZUWAKU
  6
Continuous
 62
     6
370
    25
100
AcDbLine
 10
-2.494678496184875
 20
132.0791923940303
 30
0.0
 11
-1.108454353672087
 21
131.2797391624018
 31
0.0
  0
ARC
  5
12F
330
C1
100
AcDbEntity
  8
ZUWAKU
  6
Continuous
 62
     6
370
    25
100
AcDbCircle
 10
-1.405876864626975
 20
130.5560446692498
 30
0.0
 40
0.7434509898745061
100
AcDbArc
 50
347.1513705453531
 51
40.27666286819425
  0
ARC
  5
130
330
C1
100
AcDbEntity
  8
ZUWAKU
  6
Continuous
 62
     6
370
    25
100
AcDbCircle
 10
-1.868903466724461
 20
130.5901924075046
 30
0.0
 40
1.204494288996884
100
AcDbArc
 50
310.5938492832106
 51
350.4674651122522
  0
ARC
  5
131
330
C1
100
AcDbEntity
  8
ZUWAKU
  6
Continuous
 62
     6
370
    25
100
AcDbCircle
 10
-2.558254893119923
 20
130.087750101634
 30
0.0
 40
1.30329744248432
100
AcDbArc
 50
160.5148326897714
 51
191.8895310933177
  0
ARC
  5
132
330
C1
100
AcDbEntity
  8
ZUWAKU
  6
Continuous
 62
     6
370
    25
100
AcDbCircle
 10
-2.963001710900201
 20
130.2116731678471
 30
0.0
 40
0.9549520550140204
100
AcDbArc
 50
204.2643871343564
 51
262.4722616271382
  0
ARC
  5
133
330
C1
100
AcDbEntity
  8
ZUWAKU
  6
Continuous
 62
     6
370
    25
100
AcDbCircle
 10
-2.537347971461983
 20
132.5227850078216
 30
0.0
 40
3.304060398726554
100
AcDbArc
 50
260.4044965112331
 51
273.429119171865
  0
ARC
  5
134
330
C1
100
AcDbEntity
  8
ZUWAKU
  6
Continuous
 62
     6
370
    25
100
AcDbCircle
 10
-2.34597051541725
 20
131.3504893434705
 30
0.0
 40
2.125858195144981
100
AcDbArc
 50
270.1684656717244
 51
296.4837080533451
  0
ARC
  5
135
330
C1
100
AcDbEntity
  8
ZUWAKU
  6
Continuous
 62
     6
370
    25
100
AcDbCircle
 10
-1.938069692842916
 20
130.517858724981
 30
0.0
 40
1.198718270853014
100
AcDbArc
 50
296.780525580249
 51
315.35939167249
  0
ARC
  5
136
330
C1
100
AcDbEntity
  8
ZUWAKU
  6
Continuous
 62
     6
370
    25
100
AcDbCircle
 10
-1.533132723280261
 20
130.5371454429522
 30
0.0
 40
0.8554514304032861
100
AcDbArc
 50
35.72751677920665
 51
60.23539910010999
  0
ENDBLK
  5
C3
330
C1
100
AcDbEntity
  8
0
100
AcDbBlockEnd
  0
BLOCK
  5
C5
330
C4
100
AcDbEntity
  8
0
100
AcDbBlockBegin
  2
DC_FILL_GROUP_8
 70
     0
 10
0.0
 20
0.0
 30
0.0
  3
DC_FILL_GROUP_8
  1
DC_FILL_GROUP_8
  0
LINE
  5
137
330
C4
100
AcDbEntity
  8
ZUWAKU
  6
Continuous
 62
     6
370
    18
100
AcDbLine
 10
0.8840602143685317
 20
133.5257500175911
 30
0.0
 11
4.281826524918756
 21
133.5257500175911
 31
0.0
  0
LINE
  5
138
330
C4
100
AcDbEntity
  8
ZUWAKU
  6
Continuous
 62
     6
370
    18
100
AcDbLine
 10
1.153476913781702
 20
129.256307163169
 30
0.0
 11
1.728354297797438
 21
129.256307163169
 31
0.0
  0
LINE
  5
139
330
C4
100
AcDbEntity
  8
ZUWAKU
  6
Continuous
 62
     6
370
    18
100
AcDbLine
 10
0.8840602143685317
 20
133.5257500175911
 30
0.0
 11
0.7643486420659542
 21
133.0789803475039
 31
0.0
  0
LINE
  5
13A
330
C4
100
AcDbEntity
  8
ZUWAKU
  6
Continuous
 62
     6
370
    18
100
AcDbLine
 10
4.281826524918756
 20
133.5257500175911
 30
0.0
 11
4.162114952616179
 21
133.0789803475039
 31
0.0
  0
LINE
  5
13B
330
C4
100
AcDbEntity
  8
ZUWAKU
  6
Continuous
 62
     6
370
    18
100
AcDbLine
 10
2.752636490468078
 20
133.0789803475039
 30
0.0
 11
1.728354297797438
 21
129.256307163169
 31
0.0
  0
LINE
  5
13C
330
C4
100
AcDbEntity
  8
ZUWAKU
  6
Continuous
 62
     6
370
    18
100
AcDbLine
 10
1.153476913781702
 20
129.256307163169
 30
0.0
 11
2.177759106452342
 21
133.0789803475039
 31
0.0
  0
LINE
  5
13D
330
C4
100
AcDbEntity
  8
ZUWAKU
  6
Continuous
 62
     6
370
    18
100
AcDbLine
 10
0.7643486420659542
 20
133.0789803475039
 30
0.0
 11
2.177759106452342
 21
133.0789803475039
 31
0.0
  0
LINE
  5
13E
330
C4
100
AcDbEntity
  8
ZUWAKU
  6
Continuous
 62
     6
370
    18
100
AcDbLine
 10
2.752636490468078
 20
133.0789803475039
 30
0.0
 11
4.162114952616179
 21
133.0789803475039
 31
0.0
  0
ENDBLK
  5
C6
330
C4
100
AcDbEntity
  8
0
100
AcDbBlockEnd
  0
BLOCK
  5
C8
330
C7
100
AcDbEntity
  8
0
100
AcDbBlockBegin
  2
DC_GROUP_618H 戸当り帽子掛_9
 70
     0
 10
0.0
 20
0.0
 30
0.0
  3
DC_GROUP_618H 戸当り帽子掛_9
  1
DC_GROUP_618H 戸当り帽子掛_9
  0
INSERT
  5
13F
330
C7
100
AcDbEntity
  8
0
  6
Continuous
100
AcDbBlockReference
  2
DC_GROUP_618H 戸当り帽子掛_10
 10
0.0
 20
0.0
 30
0.0
  0
ENDBLK
  5
C9
330
C7
100
AcDbEntity
  8
0
100
AcDbBlockEnd
  0
BLOCK
  5
CB
330
CA
100
AcDbEntity
  8
0
100
AcDbBlockBegin
  2
DC_GROUP_618H 戸当り帽子掛_10
 70
     0
 10
0.0
 20
0.0
 30
0.0
  3
DC_GROUP_618H 戸当り帽子掛_10
  1
DC_GROUP_618H 戸当り帽子掛_10
  0
INSERT
  5
140
330
CA
100
AcDbEntity
  8
ZUWAKU
  6
Continuous
100
AcDbBlockReference
  2
DC_FILL_GROUP_11
 10
0.0
 20
0.0
 30
0.0
  0
HATCH
  5
141
330
CA
100
AcDbEntity
  8
ZUWAKU
 62
     6
100
AcDbHatch
 10
0.0
 20
0.0
 30
0.0
210
0.0
220
0.0
230
1.0
  2
SOLID
 70
     1
 71
     0
 91
        1
 92
        0
 93
       12
 72
     1
 10
5.807022235433489
 20
131.4977303481027
 11
188.4
 21
131.4977303481027
 72
     1
 10
188.4
 20
131.4977303481027
 11
188.3999999999999
 21
-138.3022696518974
 72
     1
 10
188.3999999999999
 20
-138.3022696518974
 11
-188.4000000000001
 21
-138.3022696518972
 72
     1
 10
-188.4000000000001
 20
-138.3022696518972
 11
-188.4
 21
131.4977303481027
 72
     1
 10
-188.4
 20
131.4977303481027
 11
-14.19297776456651
 21
131.4977303481027
 72
     1
 10
-14.1929777645665
 20
131.4977303481027
 11
-14.30015744153895
 21
131.0977303481027
 72
     1
 10
-14.30015744153895
 20
131.0977303481027
 11
-188.0
 21
131.0977303481027
 72
     1
 10
-188.0
 20
131.0977303481027
 11
-188.0000000000001
 21
-137.9022696518972
 72
     1
 10
-188.0000000000001
 20
-137.9022696518972
 11
187.9999999999999
 21
-137.9022696518973
 72
     1
 10
187.9999999999999
 20
-137.9022696518973
 11
188.0
 21
131.0977303481027
 72
     1
 10
188.0
 20
131.0977303481027
 11
5.699842558461029
 21
131.0977303481027
 72
     1
 10
5.699842558461039
 20
131.0977303481027
 11
5.807022235433489
 21
131.4977303481027
 97
        0
 75
     0
 76
     1
 98
        0
  0
LINE
  5
142
330
CA
100
AcDbEntity
  8
ZUWAKU
  6
Continuous
 62
     6
370
    25
100
AcDbLine
 10
-188.0
 20
131.0977303481027
 30
0.0
 11
-14.30015744153895
 21
131.0977303481027
 31
0.0
  0
ENDBLK
  5
CC
330
CA
100
AcDbEntity
  8
0
100
AcDbBlockEnd
  0
BLOCK
  5
CE
330
CD
100
AcDbEntity
  8
0
100
AcDbBlockBegin
  2
DC_FILL_GROUP_11
 70
     0
 10
0.0
 20
0.0
 30
0.0
  3
DC_FILL_GROUP_11
  1
DC_FILL_GROUP_11
  0
LINE
  5
143
330
CD
100
AcDbEntity
  8
ZUWAKU
  6
Continuous
 62
     6
370
    25
100
AcDbLine
 10
5.807022235433489
 20
131.4977303481027
 30
0.0
 11
188.4
 21
131.4977303481027
 31
0.0
  0
LINE
  5
144
330
CD
100
AcDbEntity
  8
ZUWAKU
  6
Continuous
 62
     6
370
    25
100
AcDbLine
 10
188.4
 20
131.4977303481027
 30
0.0
 11
188.3999999999999
 21
-138.3022696518974
 31
0.0
  0
LINE
  5
145
330
CD
100
AcDbEntity
  8
ZUWAKU
  6
Continuous
 62
     6
370
    25
100
AcDbLine
 10
188.3999999999999
 20
-138.3022696518974
 30
0.0
 11
-188.4000000000001
 21
-138.3022696518972
 31
0.0
  0
LINE
  5
146
330
CD
100
AcDbEntity
  8
ZUWAKU
  6
Continuous
 62
     6
370
    25
100
AcDbLine
 10
-188.4000000000001
 20
-138.3022696518972
 30
0.0
 11
-188.4
 21
131.4977303481027
 31
0.0
  0
ENDBLK
  5
CF
330
CD
100
AcDbEntity
  8
0
100
AcDbBlockEnd
  0
BLOCK
  5
D1
330
D0
100
AcDbEntity
  8
0
100
AcDbBlockBegin
  2
DC_GROUP_618H 戸当り帽子掛_12
 70
     0
 10
0.0
 20
0.0
 30
0.0
  3
DC_GROUP_618H 戸当り帽子掛_12
  1
DC_GROUP_618H 戸当り帽子掛_12
  0
LINE
  5
147
330
D0
100
AcDbEntity
  8
0
  6
Continuous
 62
     5
370
    13
100
AcDbLine
 10
-13.86538817049527
 20
46.04001767243614
 30
0.0
 11
-10.54099289124133
 21
49.36441295169008
 31
0.0
  0
LINE
  5
148
330
D0
100
AcDbEntity
  8
0
  6
Continuous
 62
     5
370
    13
100
AcDbLine
 10
-7.43978344974919
 20
52.46562239318223
 30
0.0
 11
0.2941249612004828
 21
60.1995308041319
 31
0.0
  0
LINE
  5
149
330
D0
100
AcDbEntity
  8
0
  6
Continuous
 62
     5
370
    13
100
AcDbLine
 10
-13.86538817049527
 20
48.16133801599579
 30
0.0
 11
-11.05812825819788
 21
50.96859792829318
 31
0.0
  0
LINE
  5
14A
330
D0
100
AcDbEntity
  8
0
  6
Continuous
 62
     5
370
    13
100
AcDbLine
 10
-9.043968426352281
 20
52.98275776013878
 30
0.0
 11
-1.219161136917815
 21
60.80756504957325
 31
0.0
  0
LINE
  5
14B
330
D0
100
AcDbEntity
  8
0
  6
Continuous
 62
     5
370
    13
100
AcDbLine
 10
-13.86538817049526
 20
50.28265835955543
 30
0.0
 11
-2.953400518690109
 21
61.1946460113606
 31
0.0
  0
LINE
  5
14C
330
D0
100
AcDbEntity
  8
0
  6
Continuous
 62
     5
370
    13
100
AcDbLine
 10
-13.86538817049526
 20
52.4039787031151
 30
0.0
 11
-4.979349201174198
 21
61.29001767243614
 31
0.0
  0
LINE
  5
14D
330
D0
100
AcDbEntity
  8
0
  6
Continuous
 62
     5
370
    13
100
AcDbLine
 10
-13.86538817049526
 20
54.52529904667475
 30
0.0
 11
-7.100669544733834
 21
61.29001767243615
 31
0.0
  0
LINE
  5
14E
330
D0
100
AcDbEntity
  8
0
  6
Continuous
 62
     5
370
    13
100
AcDbLine
 10
-13.86538817049525
 20
56.64661939023438
 30
0.0
 11
-9.221989888293466
 21
61.29001767243616
 31
0.0
  0
LINE
  5
14F
330
D0
100
AcDbEntity
  8
0
  6
Continuous
 62
     5
370
    13
100
AcDbLine
 10
-13.86538817049525
 20
58.76793973379402
 30
0.0
 11
-11.3433102318531
 21
61.29001767243616
 31
0.0
  0
LINE
  5
150
330
D0
100
AcDbEntity
  8
0
  6
Continuous
 62
     5
370
    13
100
AcDbLine
 10
-13.86538817049525
 20
60.88926007735366
 30
0.0
 11
-13.46463057541274
 21
61.29001767243617
 31
0.0
  0
LINE
  5
151
330
D0
100
AcDbEntity
  8
0
  6
Continuous
 62
     5
370
    13
100
AcDbLine
 10
-13.86538817049527
 20
43.9186973288765
 30
0.0
 11
-9.172523252546467
 21
48.61156224682531
 31
0.0
  0
LINE
  5
152
330
D0
100
AcDbEntity
  8
0
  6
Continuous
 62
     5
370
    13
100
AcDbLine
 10
-6.686932744884413
 20
51.09715275448736
 30
0.0
 11
1.627632045510794
 21
59.41171754488257
 31
0.0
  0
LINE
  5
153
330
D0
100
AcDbEntity
  8
0
  6
Continuous
 62
     5
370
    13
100
AcDbLine
 10
-13.86538817049527
 20
41.79737698531686
 30
0.0
 11
2.801218328726319
 21
58.46398348453845
 31
0.0
  0
LINE
  5
154
330
D0
100
AcDbEntity
  8
0
  6
Continuous
 62
     5
370
    13
100
AcDbLine
 10
-13.25142713981632
 20
40.29001767243617
 30
0.0
 11
3.822227984669704
 21
57.36367279692219
 31
0.0
  0
LINE
  5
155
330
D0
100
AcDbEntity
  8
0
  6
Continuous
 62
     5
370
    13
100
AcDbLine
 10
-11.13010679625668
 20
40.29001767243616
 30
0.0
 11
4.688135779231101
 21
56.10826024792394
 31
0.0
  0
LINE
  5
156
330
D0
100
AcDbEntity
  8
0
  6
Continuous
 62
     5
370
    13
100
AcDbLine
 10
-9.008786452697041
 20
40.29001767243616
 30
0.0
 11
5.385672692959973
 21
54.68447681809317
 31
0.0
  0
LINE
  5
157
330
D0
100
AcDbEntity
  8
0
  6
Continuous
 62
     5
370
    13
100
AcDbLine
 10
-6.887466109137401
 20
40.29001767243616
 30
0.0
 11
5.885616448001054
 21
53.06310022957461
 31
0.0
  0
LINE
  5
158
330
D0
100
AcDbEntity
  8
0
  6
Continuous
 62
     5
370
    13
100
AcDbLine
 10
-4.766145765577762
 20
40.29001767243615
 30
0.0
 11
6.127240078778607
 21
51.18340351679252
 31
0.0
  0
LINE
  5
159
330
D0
100
AcDbEntity
  8
0
  6
Continuous
 62
     5
370
    13
100
AcDbLine
 10
-2.472862304537518
 20
40.46198078991675
 30
0.0
 11
5.96264871202413
 21
48.8974918064784
 31
0.0
  0
LINE
  5
15A
330
D0
100
AcDbEntity
  8
0
  6
Continuous
 62
     5
370
    13
100
AcDbLine
 10
0.8813399404834017
 20
41.69486269137803
 30
0.0
 11
4.729766810562855
 21
45.54328956145748
 31
0.0
  0
ENDBLK
  5
D2
330
D0
100
AcDbEntity
  8
0
100
AcDbBlockEnd
  0
BLOCK
  5
D4
330
D3
100
AcDbEntity
  8
0
100
AcDbBlockBegin
  2
DC_GROUP_618H 戸当り帽子掛_13
 70
     0
 10
0.0
 20
0.0
 30
0.0
  3
DC_GROUP_618H 戸当り帽子掛_13
  1
DC_GROUP_618H 戸当り帽子掛_13
  0
LINE
  5
15B
330
D3
100
AcDbEntity
  8
0
  6
Continuous
 62
     5
370
    13
100
AcDbLine
 10
-6.115388170495363
 20
-32.70998232756379
 30
0.0
 11
3.384611829504627
 21
-23.2099823275638
 31
0.0
  0
LINE
  5
15C
330
D3
100
AcDbEntity
  8
0
  6
Continuous
 62
     5
370
    13
100
AcDbLine
 10
-8.236708514055005
 20
-32.70998232756379
 30
0.0
 11
1.263291485944986
 21
-23.2099823275638
 31
0.0
  0
LINE
  5
15D
330
D3
100
AcDbEntity
  8
0
  6
Continuous
 62
     5
370
    13
100
AcDbLine
 10
-10.35802885761465
 20
-32.70998232756379
 30
0.0
 11
-0.8580288576146552
 21
-23.20998232756379
 31
0.0
  0
LINE
  5
15E
330
D3
100
AcDbEntity
  8
0
  6
Continuous
 62
     5
370
    13
100
AcDbLine
 10
-12.47934920117429
 20
-32.70998232756378
 30
0.0
 11
-2.979349201174296
 21
-23.20998232756379
 31
0.0
  0
LINE
  5
15F
330
D3
100
AcDbEntity
  8
0
  6
Continuous
 62
     5
370
    13
100
AcDbLine
 10
-13.86538817049527
 20
-31.97470095332515
 30
0.0
 11
-5.10066954473394
 21
-23.20998232756379
 31
0.0
  0
LINE
  5
160
330
D3
100
AcDbEntity
  8
0
  6
Continuous
 62
     5
370
    13
100
AcDbLine
 10
-13.86538817049528
 20
-29.85338060976551
 30
0.0
 11
-7.221989888293578
 21
-23.20998232756379
 31
0.0
  0
LINE
  5
161
330
D3
100
AcDbEntity
  8
0
  6
Continuous
 62
     5
370
    13
100
AcDbLine
 10
-13.86538817049529
 20
-27.73206026620587
 30
0.0
 11
-9.343310231853218
 21
-23.20998232756378
 31
0.0
  0
LINE
  5
162
330
D3
100
AcDbEntity
  8
0
  6
Continuous
 62
     5
370
    13
100
AcDbLine
 10
-13.8653881704953
 20
-25.61073992264622
 30
0.0
 11
-11.46463057541286
 21
-23.20998232756378
 31
0.0
  0
LINE
  5
163
330
D3
100
AcDbEntity
  8
0
  6
Continuous
 62
     5
370
    13
100
AcDbLine
 10
-13.8653881704953
 20
-23.48941957908658
 30
0.0
 11
-13.5859509189725
 21
-23.20998232756378
 31
0.0
  0
LINE
  5
164
330
D3
100
AcDbEntity
  8
0
  6
Continuous
 62
     5
370
    13
100
AcDbLine
 10
-3.994067826935722
 20
-32.70998232756379
 30
0.0
 11
5.453667985163817
 21
-23.26224651546425
 31
0.0
  0
LINE
  5
165
330
D3
100
AcDbEntity
  8
0
  6
Continuous
 62
     5
370
    13
100
AcDbLine
 10
-1.872747483376081
 20
-32.70998232756379
 30
0.0
 11
6.134611829504638
 21
-24.70262301468307
 31
0.0
  0
LINE
  5
166
330
D3
100
AcDbEntity
  8
0
  6
Continuous
 62
     5
370
    13
100
AcDbLine
 10
0.2485728601835607
 20
-32.70998232756379
 30
0.0
 11
6.134611829504638
 21
-26.82394335824272
 31
0.0
  0
LINE
  5
167
330
D3
100
AcDbEntity
  8
0
  6
Continuous
 62
     5
370
    13
100
AcDbLine
 10
2.369893203743202
 20
-32.7099823275638
 30
0.0
 11
6.134611829504638
 21
-28.94526370180236
 31
0.0
  0
LINE
  5
168
330
D3
100
AcDbEntity
  8
0
  6
Continuous
 62
     5
370
    13
100
AcDbLine
 10
4.491213547302843
 20
-32.7099823275638
 30
0.0
 11
6.134611829504638
 21
-31.06658404536201
 31
0.0
  0
ENDBLK
  5
D5
330
D3
100
AcDbEntity
  8
0
100
AcDbBlockEnd
  0
BLOCK
  5
D7
330
D6
100
AcDbEntity
  8
0
100
AcDbBlockBegin
  2
DC_GROUP_618H 戸当り帽子掛_14
 70
     0
 10
0.0
 20
0.0
 30
0.0
  3
DC_GROUP_618H 戸当り帽子掛_14
  1
DC_GROUP_618H 戸当り帽子掛_14
  0
LINE
  5
169
330
D6
100
AcDbEntity
  8
0
  6
Continuous
 62
     5
370
    13
100
AcDbLine
 10
51.77770297322361
 20
-32.81689118384486
 30
0.0
 11
61.63461182950467
 21
-22.95998232756379
 31
0.0
  0
LINE
  5
16A
330
D6
100
AcDbEntity
  8
0
  6
Continuous
 62
     5
370
    13
100
AcDbLine
 10
49.79712083278358
 20
-32.67615298072523
 30
0.0
 11
59.51329148594503
 21
-22.95998232756379
 31
0.0
  0
LINE
  5
16B
330
D6
100
AcDbEntity
  8
0
  6
Continuous
 62
     5
370
    13
100
AcDbLine
 10
47.85993448862733
 20
-32.49201898132183
 30
0.0
 11
57.39197114238538
 21
-22.95998232756379
 31
0.0
  0
LINE
  5
16C
330
D6
100
AcDbEntity
  8
0
  6
Continuous
 62
     5
370
    13
100
AcDbLine
 10
46.29032844520199
 20
-31.94030468118753
 30
0.0
 11
55.27065079882573
 21
-22.95998232756379
 31
0.0
  0
LINE
  5
16D
330
D6
100
AcDbEntity
  8
0
  6
Continuous
 62
     5
370
    13
100
AcDbLine
 10
46.13461182950464
 20
-29.97470095332524
 30
0.0
 11
53.14933045526608
 21
-22.95998232756379
 31
0.0
  0
LINE
  5
16E
330
D6
100
AcDbEntity
  8
0
  6
Continuous
 62
     5
370
    13
100
AcDbLine
 10
46.13461182950464
 20
-27.85338060976559
 30
0.0
 11
51.02801011170644
 21
-22.95998232756379
 31
0.0
  0
LINE
  5
16F
330
D6
100
AcDbEntity
  8
0
  6
Continuous
 62
     5
370
    13
100
AcDbLine
 10
46.13461182950464
 20
-25.73206026620595
 30
0.0
 11
48.9066897681468
 21
-22.95998232756379
 31
0.0
  0
LINE
  5
170
330
D6
100
AcDbEntity
  8
0
  6
Continuous
 62
     5
370
    13
100
AcDbLine
 10
46.24812691332144
 20
-23.4972248388295
 30
0.0
 11
46.67185434077035
 21
-23.0734974113806
 31
0.0
  0
LINE
  5
171
330
D6
100
AcDbEntity
  8
0
  6
Continuous
 62
     5
370
    13
100
AcDbLine
 10
53.80448944881407
 20
-32.91142505181404
 30
0.0
 11
63.75593217306432
 21
-22.95998232756379
 31
0.0
  0
LINE
  5
172
330
D6
100
AcDbEntity
  8
0
  6
Continuous
 62
     5
370
    13
100
AcDbLine
 10
55.88069735842174
 20
-32.95653748576599
 30
0.0
 11
65.87725251662395
 21
-22.95998232756379
 31
0.0
  0
LINE
  5
173
330
D6
100
AcDbEntity
  8
0
  6
Continuous
 62
     5
370
    13
100
AcDbLine
 10
58.01003911283002
 20
-32.94851607491736
 30
0.0
 11
67.126407344971
 21
-23.83214784277637
 31
0.0
  0
LINE
  5
174
330
D6
100
AcDbEntity
  8
0
  6
Continuous
 62
     5
370
    13
100
AcDbLine
 10
60.19683473100749
 20
-32.88304080029953
 30
0.0
 11
67.13461182950466
 21
-25.94526370180233
 31
0.0
  0
LINE
  5
175
330
D6
100
AcDbEntity
  8
0
  6
Continuous
 62
     5
370
    13
100
AcDbLine
 10
62.44615954559765
 20
-32.75503632926904
 30
0.0
 11
67.13461182950466
 21
-28.066584045362
 31
0.0
  0
LINE
  5
176
330
D6
100
AcDbEntity
  8
0
  6
Continuous
 62
     5
370
    13
100
AcDbLine
 10
64.76404203819821
 20
-32.55847418022808
 30
0.0
 11
67.13461182950466
 21
-30.18790438892162
 31
0.0
  0
ENDBLK
  5
D8
330
D6
100
AcDbEntity
  8
0
100
AcDbBlockEnd
  0
BLOCK
  5
1E7
330
1E6
100
AcDbEntity
  8
0
100
AcDbBlockBegin
  2
_OPEN30
 70
     0
 10
0.0
 20
0.0
 30
0.0
  3
_OPEN30
  1
_OPEN30
  0
LINE
  5
1E9
330
1E6
100
AcDbEntity
  8
0
  6
ByBlock
 62
     0
370
    -2
100
AcDbLine
 10
-1.0
 20
0.267949
 30
0.0
 11
0.0
 21
0.0
 31
0.0
  0
LINE
  5
1EA
330
1E6
100
AcDbEntity
  8
0
  6
ByBlock
 62
     0
370
    -2
100
AcDbLine
 10
0.0
 20
0.0
 30
0.0
 11
-1.0
 21
-0.267949
 31
0.0
  0
LINE
  5
1EB
330
1E6
100
AcDbEntity
  8
0
  6
ByBlock
 62
     0
370
    -2
100
AcDbLine
 10
0.0
 20
0.0
 30
0.0
 11
-1.0
 21
0.0
 31
0.0
  0
ENDBLK
  5
1E8
330
1E6
100
AcDbEntity
  8
0
100
AcDbBlockEnd
  0
BLOCK
  5
205
330
204
100
AcDbEntity
  8
0
100
AcDbBlockBegin
  2
_DOT
 70
     0
 10
0.0
 20
0.0
 30
0.0
  3
_DOT
  1
_DOT
  0
POLYLINE
  5
207
330
204
100
AcDbEntity
  8
0
  6
ByBlock
 62
     0
100
AcDb2dPolyline
 66
     1
 10
0.0
 20
0.0
 30
0.0
 70
     1
 40
0.5
 41
0.5
  0
VERTEX
  5
209
330
207
100
AcDbEntity
  8
0
  6
ByBlock
 62
     0
100
AcDbVertex
100
AcDb2dVertex
 10
-0.25
 20
0.0
 30
0.0
 42
1.0
  0
VERTEX
  5
20A
330
207
100
AcDbEntity
  8
0
  6
ByBlock
 62
     0
100
AcDbVertex
100
AcDb2dVertex
 10
0.25
 20
0.0
 30
0.0
 42
1.0
  0
SEQEND
  5
20B
330
207
100
AcDbEntity
  8
0
  6
ByBlock
 62
     0
  0
LINE
  5
208
330
204
100
AcDbEntity
  8
0
  6
ByBlock
 62
     0
370
    -2
100
AcDbLine
 10
-0.5
 20
0.0
 30
0.0
 11
-1.0
 21
0.0
 31
0.0
  0
ENDBLK
  5
206
330
204
100
AcDbEntity
  8
0
100
AcDbBlockEnd
  0
ENDSEC
  0
SECTION
  2
ENTITIES
  0
INSERT
  5
177
330
1F
100
AcDbEntity
  8
ZUWAKU
  6
Continuous
100
AcDbBlockReference
  2
DC_GROUP_618H 戸当り帽子掛_1
 10
0.0
 20
0.0
 30
0.0
  0
TEXT
  5
179
330
1F
100
AcDbEntity
  8
ZUWAKU
 62
     7
100
AcDbText
 10
176.3416296766011
 20
-137.1082752060875
 30
0.0
 40
3.5
  1
201708
 41
0.7692307692307692
  7
dcStyle0
 72
     5
 11
186.8416296766011
 21
-137.1082752060875
 31
0.0
100
AcDbText
  0
TEXT
  5
17B
330
1F
100
AcDbEntity
  8
ZUWAKU
 62
     7
100
AcDbText
 10
90.08059899787432
 20
126.8917406060535
 30
0.0
 40
3.0
  1
品　　番
 41
0.6320622435020516
  7
dcStyle1
 72
     5
 11
101.1805989978743
 21
126.8917406060535
 31
0.0
100
AcDbText
  0
TEXT
  5
17C
330
1F
100
AcDbEntity
  8
ZUWAKU
 62
     7
100
AcDbText
 10
90.08059899787432
 20
121.8917406060535
 30
0.0
 40
3.0
  1
品　　名
 41
0.6320622435020516
  7
dcStyle1
 72
     5
 11
101.1805989978743
 21
121.8917406060535
 31
0.0
100
AcDbText
  0
TEXT
  5
17D
330
1F
100
AcDbEntity
  8
ZUWAKU
 62
     7
100
AcDbText
 10
90.0805989978743
 20
116.8917406060535
 30
0.0
 40
3.0
  1
材　　質
 41
0.6320622435020525
  7
dcStyle1
 72
     5
 11
101.1805989978743
 21
116.8917406060535
 31
0.0
100
AcDbText
  0
TEXT
  5
17E
330
1F
100
AcDbEntity
  8
ZUWAKU
 62
     7
100
AcDbText
 10
90.08059899787429
 20
111.8917406060535
 30
0.0
 40
3.0
  1
仕　　上
 41
0.6320622435020516
  7
dcStyle1
 72
     5
 11
101.1805989978743
 21
111.8917406060535
 31
0.0
100
AcDbText
  0
TEXT
  5
17F
330
1F
100
AcDbEntity
  8
ZUWAKU
 62
     7
100
AcDbText
 10
106.4850421348313
 20
116.8917406060535
 30
0.0
 40
3.0
  1
本体：亜鉛、ゴム：ウレタンゴム(黒)
 41
0.6605335157318738
  7
dcStyle1
 72
     5
 11
155.7850421348313
 21
116.8917406060535
 31
0.0
100
AcDbText
  0
TEXT
  5
180
330
1F
100
AcDbEntity
  8
ZUWAKU
 62
     7
100
AcDbText
 10
106.4850421348313
 20
111.8917406060535
 30
0.0
 40
3.0
  1
シルバー、ローズピンク、ミントブルー、ブラック、ホワイト
 41
0.6564661911276136
  7
dcStyle1
 72
     5
 11
187.1850421348313
 21
111.8917406060535
 31
0.0
100
AcDbText
  0
TEXT
  5
181
330
1F
100
AcDbEntity
  8
ZUWAKU
 62
     7
100
AcDbText
 10
90.08059899787429
 20
106.8917406060535
 30
0.0
 40
3.0
  1
取付ねじ
 41
0.6320622435020516
  7
dcStyle1
 72
     5
 11
101.1805989978743
 21
106.8917406060535
 31
0.0
100
AcDbText
  0
TEXT
  5
182
330
1F
100
AcDbEntity
  8
ZUWAKU
 62
     7
100
AcDbText
 10
106.4850421348313
 20
106.8917406060535
 30
0.0
 40
3.0
  1
＋皿タッピンねじ4×25 SUS
 41
0.6833105335157322
  7
dcStyle1
 72
     5
 11
143.9850421348314
 21
106.8917406060535
 31
0.0
100
AcDbText
  0
INSERT
  5
183
330
1F
100
AcDbEntity
  8
0
  6
Continuous
100
AcDbBlockReference
  2
DC_GROUP_618H 戸当り帽子掛_2
 10
0.0
 20
0.0
 30
0.0
  0
INSERT
  5
184
330
1F
100
AcDbEntity
  8
0
  6
Continuous
100
AcDbBlockReference
  2
DC_GROUP_618H 戸当り帽子掛_12
 10
0.0
 20
0.0
 30
0.0
  0
INSERT
  5
185
330
1F
100
AcDbEntity
  8
0
  6
Continuous
100
AcDbBlockReference
  2
DC_GROUP_618H 戸当り帽子掛_13
 10
0.0
 20
0.0
 30
0.0
  0
INSERT
  5
186
330
1F
100
AcDbEntity
  8
0
  6
Continuous
100
AcDbBlockReference
  2
DC_GROUP_618H 戸当り帽子掛_14
 10
0.0
 20
0.0
 30
0.0
  0
TEXT
  5
187
330
1F
100
AcDbEntity
  8
ZUWAKU
 62
     2
100
AcDbText
 10
106.1834988554195
 20
126.8917406060535
 30
0.0
 40
3.0
  1
№618H
 41
0.9718194254445962
  7
dcStyle1
 72
     5
 11
118.9834988554195
 21
126.8917406060535
 31
0.0
100
AcDbText
  0
TEXT
  5
188
330
1F
100
AcDbEntity
  8
ZUWAKU
 62
     2
100
AcDbText
 10
106.3834988554195
 20
121.8917406060535
 30
0.0
 40
3.0
  1
戸当り帽子掛
 41
0.7782147742818057
  7
dcStyle1
 72
     5
 11
126.8834988554195
 21
121.8917406060535
 31
0.0
100
AcDbText
  0
LINE
  5
189
330
1F
100
AcDbEntity
  8
ZUWAKU
  6
Continuous
 62
     6
370
    50
100
AcDbLine
 10
87.46404494382043
 20
131.0977303481027
 30
0.0
 11
188.0
 21
131.0977303481027
 31
0.0
  0
LINE
  5
18A
330
1F
100
AcDbEntity
  8
ZUWAKU
  6
Continuous
 62
     6
370
    50
100
AcDbLine
 10
87.46404494382043
 20
126.0977303481027
 30
0.0
 11
188.0
 21
126.0977303481027
 31
0.0
  0
LINE
  5
18B
330
1F
100
AcDbEntity
  8
ZUWAKU
  6
Continuous
 62
     6
370
    50
100
AcDbLine
 10
87.46404494382043
 20
121.0977303481027
 30
0.0
 11
188.0
 21
121.0977303481027
 31
0.0
  0
LINE
  5
18C
330
1F
100
AcDbEntity
  8
ZUWAKU
  6
Continuous
 62
     6
370
    50
100
AcDbLine
 10
87.46404494382043
 20
116.0977303481027
 30
0.0
 11
188.0
 21
116.0977303481027
 31
0.0
  0
LINE
  5
18D
330
1F
100
AcDbEntity
  8
ZUWAKU
  6
Continuous
 62
     6
370
    50
100
AcDbLine
 10
87.46404494382043
 20
111.0977303481027
 30
0.0
 11
188.0
 21
111.0977303481027
 31
0.0
  0
LINE
  5
18E
330
1F
100
AcDbEntity
  8
ZUWAKU
  6
Continuous
 62
     6
370
    50
100
AcDbLine
 10
87.46404494382043
 20
106.0977303481027
 30
0.0
 11
188.0
 21
106.0977303481027
 31
0.0
  0
LINE
  5
18F
330
1F
100
AcDbEntity
  8
ZUWAKU
  6
Continuous
 62
     6
370
    50
100
AcDbLine
 10
87.46404494382043
 20
131.0977303481027
 30
0.0
 11
87.46404494382037
 21
106.0977303481027
 31
0.0
  0
LINE
  5
190
330
1F
100
AcDbEntity
  8
ZUWAKU
  6
Continuous
 62
     6
370
    50
100
AcDbLine
 10
103.8684880807775
 20
106.0977303481027
 30
0.0
 11
103.8684880807775
 21
131.0977303481027
 31
0.0
  0
CIRCLE
  5
191
330
1F
100
AcDbEntity
  8
ZUWAKU
  6
Continuous
 62
     7
370
    13
100
AcDbCircle
 10
107.6850421348313
 20
108.3917406060535
 30
0.0
 40
1.384097346342988
  0
LINE
  5
192
330
1F
100
AcDbEntity
  8
0
  6
CENTER
 62
     7
370
    13
100
AcDbLine
 10
-73.86538817049535
 20
-19.9599823275638
 30
0.0
 11
-73.86538817049535
 21
-35.9599823275638
 31
0.0
  0
LINE
  5
193
330
1F
100
AcDbEntity
  8
0
  6
CENTER
 62
     7
370
    13
100
AcDbLine
 10
-102.3653881704953
 20
-34.95998232756377
 30
0.0
 11
-86.86538817049535
 21
-34.9599823275638
 31
0.0
  0
LINE
  5
194
330
1F
100
AcDbEntity
  8
0
  6
CENTER
 62
     7
370
    13
100
AcDbLine
 10
-102.3653881704953
 20
-64.95998232756374
 30
0.0
 11
-86.86538817049535
 21
-64.95998232756374
 31
0.0
  0
LINE
  5
195
330
1F
100
AcDbEntity
  8
0
  6
CENTER
 62
     7
370
    13
100
AcDbLine
 10
-102.3653881704953
 20
50.79001767243617
 30
0.0
 11
11.67977528089891
 21
50.79001767243617
 31
0.0
  0
LINE
  5
196
330
1F
100
AcDbEntity
  8
0
  6
CENTER
 62
     7
370
    13
100
AcDbLine
 10
56.63461182950461
 20
-19.9599823275638
 30
0.0
 11
56.63461182950461
 21
-75.95998232756378
 31
0.0
  0
LINE
  5
197
330
1F
100
AcDbEntity
  8
0
  6
CENTER
 62
     7
370
    13
100
AcDbLine
 10
-73.8653881704953
 20
43.54001767243617
 30
0.0
 11
-73.8653881704953
 21
58.04001767243617
 31
0.0
  0
LINE
  5
198
330
1F
100
AcDbEntity
  8
0
  6
CENTER
 62
     7
370
    13
100
AcDbLine
 10
-8.86538817049529
 20
55.99001767243619
 30
0.0
 11
-8.86538817049529
 21
45.59001767243618
 31
0.0
  0
LINE
  5
199
330
1F
100
AcDbEntity
  8
0
  6
CENTER
 62
     7
370
    13
100
AcDbLine
 10
-8.865388170495375
 20
-17.75998232756379
 30
0.0
 11
-8.865388170495375
 21
-33.2099823275638
 31
0.0
  0
LINE
  5
19A
330
1F
100
AcDbEntity
  8
0
  6
CENTER
 62
     7
370
    13
100
AcDbLine
 10
47.38461182950461
 20
-64.95998232756376
 30
0.0
 11
61.88461182950461
 21
-64.95998232756376
 31
0.0
  0
LINE
  5
19B
330
1F
100
AcDbEntity
  8
0
  6
CENTER
 62
     7
370
    13
100
AcDbLine
 10
51.38461182950461
 20
-34.95998232756377
 30
0.0
 11
65.8846118295046
 21
-34.95998232756377
 31
0.0
  0
LINE
  5
19C
330
1F
100
AcDbEntity
  8
0
  6
DASHED2
 62
     7
370
    13
100
AcDbLine
 10
-92.01538817049538
 20
-32.9599823275638
 30
0.0
 11
-93.86538817049535
 21
-32.9599823275638
 31
0.0
  0
LINE
  5
19D
330
1F
100
AcDbEntity
  8
0
  6
DASHED2
 62
     7
370
    13
100
AcDbLine
 10
-92.01538817049538
 20
-36.9599823275638
 30
0.0
 11
-93.86538817049535
 21
-36.95998232756377
 31
0.0
  0
LINE
  5
19E
330
1F
100
AcDbEntity
  8
0
  6
DASHED2
 62
     7
370
    13
100
AcDbLine
 10
-92.01538817049533
 20
-32.95998232756377
 30
0.0
 11
-89.85928696796981
 21
-30.80388112503822
 31
0.0
  0
LINE
  5
19F
330
1F
100
AcDbEntity
  8
0
  6
DASHED2
 62
     7
370
    13
100
AcDbLine
 10
-92.01538817049538
 20
-33.30998232756379
 30
0.0
 11
-93.86538817049535
 21
-33.30998232756379
 31
0.0
  0
LINE
  5
1A0
330
1F
100
AcDbEntity
  8
0
  6
DASHED2
 62
     7
370
    13
100
AcDbLine
 10
-92.01538817049538
 20
-36.60998232756378
 30
0.0
 11
-93.86538817049535
 21
-36.60998232756378
 31
0.0
  0
LINE
  5
1A1
330
1F
100
AcDbEntity
  8
0
  6
DASHED2
 62
     7
370
    13
100
AcDbLine
 10
-71.86538817049535
 20
-24.9599823275638
 30
0.0
 11
-69.86538817049535
 21
-22.9599823275638
 31
0.0
  0
LINE
  5
1A2
330
1F
100
AcDbEntity
  8
0
  6
DASHED2
 62
     7
370
    13
100
AcDbLine
 10
-77.86538817049535
 20
-22.9599823275638
 30
0.0
 11
-75.86538817049535
 21
-24.9599823275638
 31
0.0
  0
LINE
  5
1A3
330
1F
100
AcDbEntity
  8
0
  6
DASHED2
 62
     7
370
    13
100
AcDbLine
 10
-71.86538817049535
 20
-24.9599823275638
 30
0.0
 11
-71.86538817049535
 21
-32.9599823275638
 31
0.0
  0
LINE
  5
1A4
330
1F
100
AcDbEntity
  8
0
  6
DASHED2
 62
     7
370
    13
100
AcDbLine
 10
-75.86538817049535
 20
-32.9599823275638
 30
0.0
 11
-75.86538817049535
 21
-24.9599823275638
 31
0.0
  0
LINE
  5
1A5
330
1F
100
AcDbEntity
  8
0
  6
DASHED2
 62
     7
370
    13
100
AcDbLine
 10
-71.86538817049535
 20
-26.35998232756381
 30
0.0
 11
-75.86538817049535
 21
-26.35998232756381
 31
0.0
  0
LINE
  5
1A6
330
1F
100
AcDbEntity
  8
0
  6
DASHED2
 62
     7
370
    13
100
AcDbLine
 10
-72.21538817049534
 20
-26.35998232756381
 30
0.0
 11
-72.21538817049534
 21
-32.9599823275638
 31
0.0
  0
LINE
  5
1A7
330
1F
100
AcDbEntity
  8
0
  6
DASHED2
 62
     7
370
    13
100
AcDbLine
 10
-75.51538817049536
 20
-26.35998232756381
 30
0.0
 11
-75.51538817049536
 21
-32.9599823275638
 31
0.0
  0
LINE
  5
1A8
330
1F
100
AcDbEntity
  8
0
  6
DASHED2
 62
     7
370
    13
100
AcDbLine
 10
-75.86538817049535
 20
-32.9599823275638
 30
0.0
 11
-71.86538817049535
 21
-32.9599823275638
 31
0.0
  0
LINE
  5
1A9
330
1F
100
AcDbEntity
  8
0
  6
DASHED2
 62
     7
370
    13
100
AcDbLine
 10
-92.01538817049534
 20
-36.95998232756382
 30
0.0
 11
-89.85928696796982
 21
-39.11608353008937
 31
0.0
  0
LINE
  5
1AA
330
1F
100
AcDbEntity
  8
0
  6
DASHED2
 62
     7
370
    13
100
AcDbLine
 10
-92.01538817049538
 20
-32.9599823275638
 30
0.0
 11
-92.01538817049538
 21
-36.9599823275638
 31
0.0
  0
LINE
  5
1AB
330
1F
100
AcDbEntity
  8
0
  6
DASHED2
 62
     7
370
    13
100
AcDbLine
 10
-78.11538817049534
 20
-22.95998232756379
 30
0.0
 11
-76.11538817049532
 21
-24.95998232756379
 31
0.0
  0
LINE
  5
1AC
330
1F
100
AcDbEntity
  8
0
  6
DASHED2
 62
     7
370
    13
100
AcDbLine
 10
-71.61538817049534
 20
-24.9599823275638
 30
0.0
 11
-69.61538817049534
 21
-22.95998232756379
 31
0.0
  0
LINE
  5
1AD
330
1F
100
AcDbEntity
  8
0
  6
DASHED2
 62
     7
370
    13
100
AcDbLine
 10
-89.84734499554547
 20
-30.69193915261388
 30
0.0
 11
-91.51538817049493
 21
-32.3599823275638
 31
0.0
  0
LINE
  5
1AE
330
1F
100
AcDbEntity
  8
0
  6
DASHED2
 62
     7
370
    13
100
AcDbLine
 10
-75.86538817049535
 20
-24.9599823275638
 30
0.0
 11
-71.86538817049535
 21
-24.9599823275638
 31
0.0
  0
LINE
  5
1AF
330
1F
100
AcDbEntity
  8
0
  6
DASHED2
 62
     7
370
    13
100
AcDbLine
 10
-92.01538817049538
 20
-62.95998232756376
 30
0.0
 11
-93.86538817049535
 21
-62.95998232756376
 31
0.0
  0
LINE
  5
1B0
330
1F
100
AcDbEntity
  8
0
  6
DASHED2
 62
     7
370
    13
100
AcDbLine
 10
-92.01538817049538
 20
-66.95998232756376
 30
0.0
 11
-93.86538817049535
 21
-66.95998232756374
 31
0.0
  0
LINE
  5
1B1
330
1F
100
AcDbEntity
  8
0
  6
DASHED2
 62
     7
370
    13
100
AcDbLine
 10
-92.01538817049533
 20
-62.95998232756374
 30
0.0
 11
-89.85928696796981
 21
-60.80388112503819
 31
0.0
  0
LINE
  5
1B2
330
1F
100
AcDbEntity
  8
0
  6
DASHED2
 62
     7
370
    13
100
AcDbLine
 10
-92.01538817049538
 20
-63.30998232756376
 30
0.0
 11
-93.86538817049535
 21
-63.30998232756376
 31
0.0
  0
LINE
  5
1B3
330
1F
100
AcDbEntity
  8
0
  6
DASHED2
 62
     7
370
    13
100
AcDbLine
 10
-92.01538817049538
 20
-66.60998232756374
 30
0.0
 11
-93.86538817049535
 21
-66.60998232756374
 31
0.0
  0
LINE
  5
1B4
330
1F
100
AcDbEntity
  8
0
  6
DASHED2
 62
     7
370
    13
100
AcDbLine
 10
-92.01538817049534
 20
-66.95998232756378
 30
0.0
 11
-89.85928696796982
 21
-69.11608353008933
 31
0.0
  0
LINE
  5
1B5
330
1F
100
AcDbEntity
  8
0
  6
DASHED2
 62
     7
370
    13
100
AcDbLine
 10
-92.01538817049538
 20
-62.95998232756376
 30
0.0
 11
-92.01538817049538
 21
-66.95998232756376
 31
0.0
  0
CIRCLE
  5
1B6
330
1F
100
AcDbEntity
  8
0
  6
DASHED
 62
     7
370
    13
100
AcDbCircle
 10
56.63461182950461
 20
-34.95998232756374
 30
0.0
 40
4.25
  0
CIRCLE
  5
1B7
330
1F
100
AcDbEntity
  8
0
  6
DASHED
 62
     7
370
    13
100
AcDbCircle
 10
56.62961182950461
 20
-64.95998232756374
 30
0.0
 40
4.25
  0
LINE
  5
1B8
330
1F
100
AcDbEntity
  8
0
  6
DASHED
 62
     7
370
    13
100
AcDbLine
 10
56.13461182950461
 20
-32.45998232756371
 30
0.0
 11
56.13461182950461
 21
-32.95998232756371
 31
0.0
  0
ARC
  5
1B9
330
1F
100
AcDbEntity
  8
0
  6
DASHED
 62
     7
370
    13
100
AcDbCircle
 10
54.63461182950458
 20
-32.95998232756371
 30
0.0
 40
1.5
100
AcDbArc
 50
269.9999999999999
 51
0.0
  0
ARC
  5
1BA
330
1F
100
AcDbEntity
  8
0
  6
DASHED
 62
     7
370
    13
100
AcDbCircle
 10
54.63461182950461
 20
-36.95998232756376
 30
0.0
 40
1.5
100
AcDbArc
 50
0.0000000000002685
 51
90.00000000000034
  0
ARC
  5
1BB
330
1F
100
AcDbEntity
  8
0
  6
DASHED
 62
     7
370
    13
100
AcDbCircle
 10
58.63461182950461
 20
-36.95998232756374
 30
0.0
 40
1.5
100
AcDbArc
 50
90.00000000000026
 51
180.0000000000003
  0
ARC
  5
1BC
330
1F
100
AcDbEntity
  8
0
  6
DASHED
 62
     7
370
    13
100
AcDbCircle
 10
58.63461182950461
 20
-32.95998232756371
 30
0.0
 40
1.5
100
AcDbArc
 50
180.0000000000002
 51
270.0000000000003
  0
LINE
  5
1BD
330
1F
100
AcDbEntity
  8
0
  6
DASHED
 62
     7
370
    13
100
AcDbLine
 10
57.13461182950461
 20
-32.45998232756371
 30
0.0
 11
57.13461182950461
 21
-32.95998232756374
 31
0.0
  0
ARC
  5
1BE
330
1F
100
AcDbEntity
  8
0
  6
DASHED
 62
     7
370
    13
100
AcDbCircle
 10
56.63461182950461
 20
-32.45998232756371
 30
0.0
 40
0.5
100
AcDbArc
 50
0.0
 51
180.0
  0
LINE
  5
1BF
330
1F
100
AcDbEntity
  8
0
  6
DASHED
 62
     7
370
    13
100
AcDbLine
 10
54.13461182950461
 20
-35.45998232756374
 30
0.0
 11
54.63461182950458
 21
-35.45998232756374
 31
0.0
  0
LINE
  5
1C0
330
1F
100
AcDbEntity
  8
0
  6
DASHED
 62
     7
370
    13
100
AcDbLine
 10
54.13461182950461
 20
-34.45998232756374
 30
0.0
 11
54.63461182950461
 21
-34.45998232756374
 31
0.0
  0
ARC
  5
1C1
330
1F
100
AcDbEntity
  8
0
  6
DASHED
 62
     7
370
    13
100
AcDbCircle
 10
54.13461182950461
 20
-34.95998232756374
 30
0.0
 40
0.5
100
AcDbArc
 50
89.99999999999999
 51
269.9999999999999
  0
LINE
  5
1C2
330
1F
100
AcDbEntity
  8
0
  6
DASHED
 62
     7
370
    13
100
AcDbLine
 10
57.13461182950461
 20
-37.45998232756375
 30
0.0
 11
57.13461182950461
 21
-36.95998232756376
 31
0.0
  0
LINE
  5
1C3
330
1F
100
AcDbEntity
  8
0
  6
DASHED
 62
     7
370
    13
100
AcDbLine
 10
56.13461182950461
 20
-37.45998232756375
 30
0.0
 11
56.13461182950461
 21
-36.95998232756374
 31
0.0
  0
ARC
  5
1C4
330
1F
100
AcDbEntity
  8
0
  6
DASHED
 62
     7
370
    13
100
AcDbCircle
 10
56.63461182950461
 20
-37.45998232756375
 30
0.0
 40
0.5
100
AcDbArc
 50
180.0
 51
359.9999999999999
  0
LINE
  5
1C5
330
1F
100
AcDbEntity
  8
0
  6
DASHED
 62
     7
370
    13
100
AcDbLine
 10
59.13461182950464
 20
-34.45998232756374
 30
0.0
 11
58.63461182950464
 21
-34.45998232756374
 31
0.0
  0
LINE
  5
1C6
330
1F
100
AcDbEntity
  8
0
  6
DASHED
 62
     7
370
    13
100
AcDbLine
 10
59.13461182950464
 20
-35.45998232756374
 30
0.0
 11
58.63461182950461
 21
-35.45998232756374
 31
0.0
  0
ARC
  5
1C7
330
1F
100
AcDbEntity
  8
0
  6
DASHED
 62
     7
370
    13
100
AcDbCircle
 10
59.13461182950464
 20
-34.95998232756374
 30
0.0
 40
0.5
100
AcDbArc
 50
269.9999999999999
 51
89.9999999999999
  0
LINE
  5
1C8
330
1F
100
AcDbEntity
  8
0
  6
DASHED
 62
     7
370
    13
100
AcDbLine
 10
56.12961182950461
 20
-62.45998232756372
 30
0.0
 11
56.12961182950461
 21
-62.95998232756371
 31
0.0
  0
ARC
  5
1C9
330
1F
100
AcDbEntity
  8
0
  6
DASHED
 62
     7
370
    13
100
AcDbCircle
 10
54.62961182950458
 20
-62.95998232756371
 30
0.0
 40
1.5
100
AcDbArc
 50
269.9999999999999
 51
0.0
  0
ARC
  5
1CA
330
1F
100
AcDbEntity
  8
0
  6
DASHED
 62
     7
370
    13
100
AcDbCircle
 10
54.62961182950461
 20
-66.95998232756376
 30
0.0
 40
1.5
100
AcDbArc
 50
0.0000000000002685
 51
90.00000000000034
  0
ARC
  5
1CB
330
1F
100
AcDbEntity
  8
0
  6
DASHED
 62
     7
370
    13
100
AcDbCircle
 10
58.62961182950461
 20
-66.95998232756374
 30
0.0
 40
1.5
100
AcDbArc
 50
90.00000000000026
 51
180.0000000000003
  0
ARC
  5
1CC
330
1F
100
AcDbEntity
  8
0
  6
DASHED
 62
     7
370
    13
100
AcDbCircle
 10
58.62961182950461
 20
-62.95998232756371
 30
0.0
 40
1.5
100
AcDbArc
 50
180.0000000000002
 51
270.0000000000003
  0
LINE
  5
1CD
330
1F
100
AcDbEntity
  8
0
  6
DASHED
 62
     7
370
    13
100
AcDbLine
 10
57.12961182950461
 20
-62.45998232756372
 30
0.0
 11
57.12961182950461
 21
-62.95998232756374
 31
0.0
  0
ARC
  5
1CE
330
1F
100
AcDbEntity
  8
0
  6
DASHED
 62
     7
370
    13
100
AcDbCircle
 10
56.62961182950461
 20
-62.45998232756372
 30
0.0
 40
0.5
100
AcDbArc
 50
0.0
 51
180.0
  0
LINE
  5
1CF
330
1F
100
AcDbEntity
  8
0
  6
DASHED
 62
     7
370
    13
100
AcDbLine
 10
54.12961182950458
 20
-65.45998232756374
 30
0.0
 11
54.62961182950458
 21
-65.45998232756374
 31
0.0
  0
LINE
  5
1D0
330
1F
100
AcDbEntity
  8
0
  6
DASHED
 62
     7
370
    13
100
AcDbLine
 10
54.12961182950458
 20
-64.45998232756374
 30
0.0
 11
54.62961182950461
 21
-64.45998232756374
 31
0.0
  0
ARC
  5
1D1
330
1F
100
AcDbEntity
  8
0
  6
DASHED
 62
     7
370
    13
100
AcDbCircle
 10
54.12961182950458
 20
-64.95998232756374
 30
0.0
 40
0.5
100
AcDbArc
 50
89.99999999999999
 51
269.9999999999999
  0
LINE
  5
1D2
330
1F
100
AcDbEntity
  8
0
  6
DASHED
 62
     7
370
    13
100
AcDbLine
 10
57.12961182950461
 20
-67.45998232756375
 30
0.0
 11
57.12961182950461
 21
-66.95998232756376
 31
0.0
  0
LINE
  5
1D3
330
1F
100
AcDbEntity
  8
0
  6
DASHED
 62
     7
370
    13
100
AcDbLine
 10
56.12961182950461
 20
-67.45998232756375
 30
0.0
 11
56.12961182950461
 21
-66.95998232756374
 31
0.0
  0
ARC
  5
1D4
330
1F
100
AcDbEntity
  8
0
  6
DASHED
 62
     7
370
    13
100
AcDbCircle
 10
56.62961182950461
 20
-67.45998232756375
 30
0.0
 40
0.5
100
AcDbArc
 50
180.0
 51
359.9999999999999
  0
LINE
  5
1D5
330
1F
100
AcDbEntity
  8
0
  6
DASHED
 62
     7
370
    13
100
AcDbLine
 10
59.12961182950461
 20
-64.45998232756374
 30
0.0
 11
58.62961182950464
 21
-64.45998232756374
 31
0.0
  0
LINE
  5
1D6
330
1F
100
AcDbEntity
  8
0
  6
DASHED
 62
     7
370
    13
100
AcDbLine
 10
59.12961182950461
 20
-65.45998232756374
 30
0.0
 11
58.62961182950461
 21
-65.45998232756374
 31
0.0
  0
ARC
  5
1D7
330
1F
100
AcDbEntity
  8
0
  6
DASHED
 62
     7
370
    13
100
AcDbCircle
 10
59.12961182950461
 20
-64.95998232756374
 30
0.0
 40
0.5
100
AcDbArc
 50
269.9999999999999
 51
89.9999999999999
  0
LINE
  5
1D8
330
1F
100
AcDbEntity
  8
0
  6
Continuous
 62
     7
370
    13
100
AcDbLine
 10
-73.8653881704953
 20
37.20004937886583
 30
0.0
 11
-73.8653881704953
 21
29.69001767243618
 31
0.0
  0
LINE
  5
1D9
330
1F
100
AcDbEntity
  8
0
  6
Continuous
 62
     7
370
    13
100
AcDbLine
 10
-8.865388170495375
 20
37.20004937886583
 30
0.0
 11
-8.865388170495375
 21
29.69001767243618
 31
0.0
  0
LINE
  5
1DA
330
1F
100
AcDbEntity
  8
0
  6
Continuous
 62
     7
370
    13
100
AcDbLine
 10
-93.8653881704953
 20
37.20004937886583
 30
0.0
 11
-93.8653881704953
 21
21.69001767243618
 31
0.0
  0
LINE
  5
1DB
330
1F
100
AcDbEntity
  8
0
  6
Continuous
 62
     7
370
    13
100
AcDbLine
 10
6.134611829504624
 20
37.20004937886583
 30
0.0
 11
6.134611829504624
 21
21.69001767243618
 31
0.0
  0
LINE
  5
1DC
330
1F
100
AcDbEntity
  8
0
  6
Continuous
 62
     7
370
    13
100
AcDbLine
 10
6.048559251240891
 20
-22.95998232756383
 30
0.0
 11
16.73461182950463
 21
-22.95998232756383
 31
0.0
  0
LINE
  5
1DD
330
1F
100
AcDbEntity
  8
0
  6
Continuous
 62
     7
370
    13
100
AcDbLine
 10
6.048559251240891
 20
-32.95998232756383
 30
0.0
 11
16.73461182950463
 21
-32.95998232756383
 31
0.0
  0
LINE
  5
1DE
330
1F
100
AcDbEntity
  8
0
  6
Continuous
 62
     7
370
    13
100
AcDbLine
 10
66.48461182950457
 20
-34.95998232756377
 30
0.0
 11
77.73461182950463
 21
-34.95998232756377
 31
0.0
  0
LINE
  5
1DF
330
1F
100
AcDbEntity
  8
0
  6
Continuous
 62
     7
370
    13
100
AcDbLine
 10
62.48461182950457
 20
-64.95998232756376
 30
0.0
 11
77.73461182950463
 21
-64.95998232756376
 31
0.0
  0
LINE
  5
1E0
330
1F
100
AcDbEntity
  8
0
  6
Continuous
 62
     7
370
    13
100
AcDbLine
 10
66.94433486392724
 20
-22.95998232756377
 30
0.0
 11
85.73461182950463
 21
-22.95998232756377
 31
0.0
  0
LINE
  5
1E1
330
1F
100
AcDbEntity
  8
0
  6
Continuous
 62
     7
370
    13
100
AcDbLine
 10
60.33299781620993
 20
-72.95998232756378
 30
0.0
 11
85.73461182950463
 21
-72.95998232756378
 31
0.0
  0
LINE
  5
1E2
330
1F
100
AcDbEntity
  8
0
  6
Continuous
 62
     7
370
    13
100
AcDbLine
 10
46.13461182950461
 20
-23.35998232756379
 30
0.0
 11
46.13461182950461
 21
-10.15998232756376
 31
0.0
  0
LINE
  5
1E3
330
1F
100
AcDbEntity
  8
0
  6
Continuous
 62
     7
370
    13
100
AcDbLine
 10
67.1346118295046
 20
-23.35998232756379
 30
0.0
 11
67.1346118295046
 21
-10.15998232756376
 31
0.0
  0
ELLIPSE
  5
1E4
330
1F
100
AcDbEntity
  8
0
  6
Continuous
 62
     7
370
    13
100
AcDbEllipse
 10
56.71305040996058
 20
-65.45070983905254
 30
0.0
 11
6.043654913954178
 21
0.0
 31
0.0
210
0.0
220
0.0
230
1.0
 40
0.4136569734032558
 41
0.0
 42
6.283185307179586
  0
LINE
  5
1E5
330
1F
100
AcDbEntity
  8
0
  6
Continuous
 62
     7
370
    13
100
AcDbLine
 10
-93.8653881704953
 20
30.29001767243617
 30
0.0
 11
-73.8653881704953
 21
30.29001767243617
 31
0.0
  0
INSERT
  5
1EC
330
1F
100
AcDbEntity
  8
0
 62
     7
100
AcDbBlockReference
  2
_OPEN30
 10
-93.8653881704953
 20
30.29001767243617
 30
0.0
 41
3.000002807615286
 42
2.999989368223643
 50
180.0
  0
INSERT
  5
1ED
330
1F
100
AcDbEntity
  8
0
 62
     7
100
AcDbBlockReference
  2
_OPEN30
 10
-73.8653881704953
 20
30.29001767243617
 30
0.0
 41
3.000002807615286
 42
2.999989368223643
 50
360.0
  0
LINE
  5
1EE
330
1F
100
AcDbEntity
  8
0
  6
Continuous
 62
     7
370
    13
100
AcDbLine
 10
-73.8653881704953
 20
30.29001767243617
 30
0.0
 11
-8.865388170495375
 21
30.29001767243617
 31
0.0
  0
INSERT
  5
1EF
330
1F
100
AcDbEntity
  8
0
 62
     7
100
AcDbBlockReference
  2
_OPEN30
 10
-73.8653881704953
 20
30.29001767243617
 30
0.0
 41
3.000002807615286
 42
2.999989368223643
 50
180.0
  0
INSERT
  5
1F0
330
1F
100
AcDbEntity
  8
0
 62
     7
100
AcDbBlockReference
  2
_OPEN30
 10
-8.865388170495375
 20
30.29001767243617
 30
0.0
 41
3.000002807615286
 42
2.999989368223643
 50
360.0
  0
LINE
  5
1F1
330
1F
100
AcDbEntity
  8
0
  6
Continuous
 62
     7
370
    13
100
AcDbLine
 10
-8.865388170495375
 20
30.29001767243617
 30
0.0
 11
6.134611829504624
 21
30.29001767243617
 31
0.0
  0
INSERT
  5
1F2
330
1F
100
AcDbEntity
  8
0
 62
     7
100
AcDbBlockReference
  2
_OPEN30
 10
-8.865388170495375
 20
30.29001767243617
 30
0.0
 41
3.000002807615286
 42
2.999989368223643
 50
180.0
  0
INSERT
  5
1F3
330
1F
100
AcDbEntity
  8
0
 62
     7
100
AcDbBlockReference
  2
_OPEN30
 10
6.134611829504624
 20
30.29001767243617
 30
0.0
 41
3.000002807615286
 42
2.999989368223643
 50
360.0
  0
LINE
  5
1F4
330
1F
100
AcDbEntity
  8
0
  6
Continuous
 62
     7
370
    13
100
AcDbLine
 10
-93.8653881704953
 20
22.29001767243617
 30
0.0
 11
6.134611829504624
 21
22.29001767243617
 31
0.0
  0
INSERT
  5
1F5
330
1F
100
AcDbEntity
  8
0
 62
     7
100
AcDbBlockReference
  2
_OPEN30
 10
-93.8653881704953
 20
22.29001767243617
 30
0.0
 41
3.000002807615286
 42
2.999989368223643
 50
180.0
  0
INSERT
  5
1F6
330
1F
100
AcDbEntity
  8
0
 62
     7
100
AcDbBlockReference
  2
_OPEN30
 10
6.134611829504624
 20
22.29001767243617
 30
0.0
 41
3.000002807615286
 42
2.999989368223643
 50
360.0
  0
LINE
  5
1F7
330
1F
100
AcDbEntity
  8
0
  6
Continuous
 62
     7
370
    13
100
AcDbLine
 10
77.1346118295046
 20
-22.95998232756377
 30
0.0
 11
77.1346118295046
 21
-34.95998232756377
 31
0.0
  0
INSERT
  5
1F8
330
1F
100
AcDbEntity
  8
0
 62
     7
100
AcDbBlockReference
  2
_OPEN30
 10
77.1346118295046
 20
-22.95998232756377
 30
0.0
 41
3.000002807615286
 42
2.999989368223643
 50
90.0
  0
INSERT
  5
1F9
330
1F
100
AcDbEntity
  8
0
 62
     7
100
AcDbBlockReference
  2
_OPEN30
 10
77.1346118295046
 20
-34.95998232756377
 30
0.0
 41
3.000002807615286
 42
2.999989368223643
 50
270.0
  0
LINE
  5
1FA
330
1F
100
AcDbEntity
  8
0
  6
Continuous
 62
     7
370
    13
100
AcDbLine
 10
77.1346118295046
 20
-34.95998232756377
 30
0.0
 11
77.1346118295046
 21
-64.95998232756376
 31
0.0
  0
INSERT
  5
1FB
330
1F
100
AcDbEntity
  8
0
 62
     7
100
AcDbBlockReference
  2
_OPEN30
 10
77.1346118295046
 20
-34.95998232756377
 30
0.0
 41
3.000002807615286
 42
2.999989368223643
 50
90.0
  0
INSERT
  5
1FC
330
1F
100
AcDbEntity
  8
0
 62
     7
100
AcDbBlockReference
  2
_OPEN30
 10
77.1346118295046
 20
-64.95998232756376
 30
0.0
 41
3.000002807615286
 42
2.999989368223643
 50
270.0
  0
LINE
  5
1FD
330
1F
100
AcDbEntity
  8
0
  6
Continuous
 62
     7
370
    13
100
AcDbLine
 10
85.1346118295046
 20
-22.95998232756377
 30
0.0
 11
85.1346118295046
 21
-72.95998232756378
 31
0.0
  0
INSERT
  5
1FE
330
1F
100
AcDbEntity
  8
0
 62
     7
100
AcDbBlockReference
  2
_OPEN30
 10
85.1346118295046
 20
-22.95998232756377
 30
0.0
 41
3.000002807615286
 42
2.999989368223643
 50
90.0
  0
INSERT
  5
1FF
330
1F
100
AcDbEntity
  8
0
 62
     7
100
AcDbBlockReference
  2
_OPEN30
 10
85.1346118295046
 20
-72.95998232756378
 30
0.0
 41
3.000002807615286
 42
2.999989368223643
 50
270.0
  0
LINE
  5
200
330
1F
100
AcDbEntity
  8
0
  6
Continuous
 62
     7
370
    13
100
AcDbLine
 10
46.13461182950461
 20
-10.75998232756377
 30
0.0
 11
67.1346118295046
 21
-10.75998232756377
 31
0.0
  0
INSERT
  5
201
330
1F
100
AcDbEntity
  8
0
 62
     7
100
AcDbBlockReference
  2
_OPEN30
 10
46.13461182950461
 20
-10.75998232756377
 30
0.0
 41
3.000002807615286
 42
2.999989368223643
 50
180.0
  0
INSERT
  5
202
330
1F
100
AcDbEntity
  8
0
 62
     7
100
AcDbBlockReference
  2
_OPEN30
 10
67.1346118295046
 20
-10.75998232756377
 30
0.0
 41
3.000002807615286
 42
2.999989368223643
 50
360.0
  0
LINE
  5
203
330
1F
100
AcDbEntity
  8
0
  6
Continuous
 62
     7
370
    13
100
AcDbLine
 10
16.13461182950461
 20
-22.95998232756383
 30
0.0
 11
16.13461182950461
 21
-32.95998232756383
 31
0.0
  0
INSERT
  5
20C
330
1F
100
AcDbEntity
  8
0
 62
     7
100
AcDbBlockReference
  2
_DOT
 10
16.13461182950461
 20
-22.95998232756383
 30
0.0
 41
0.5
 42
0.5
 50
90.0
  0
LINE
  5
20D
330
1F
100
AcDbEntity
  8
0
  6
Continuous
 62
     7
370
    13
100
AcDbLine
 10
16.13461182950461
 20
-34.95998232756383
 30
0.0
 11
16.13461182950461
 21
-32.95998232756383
 31
0.0
  0
INSERT
  5
20E
330
1F
100
AcDbEntity
  8
0
 62
     7
100
AcDbBlockReference
  2
_OPEN30
 10
16.13461182950461
 20
-32.95998232756383
 30
0.0
 41
3.000002807615286
 42
2.999989368223643
 50
90.0
  0
CIRCLE
  5
20F
330
1F
100
AcDbEntity
  8
0
  6
Continuous
 62
     2
370
    25
100
AcDbCircle
 10
-73.86538817049524
 20
50.79001767243617
 30
0.0
 40
4.25
  0
CIRCLE
  5
210
330
1F
100
AcDbEntity
  8
0
  6
Continuous
 62
     2
370
    25
100
AcDbCircle
 10
-73.86538817049524
 20
50.79001767243617
 30
0.0
 40
4.0
  0
LINE
  5
211
330
1F
100
AcDbEntity
  8
0
  6
Continuous
 62
     2
370
    25
100
AcDbLine
 10
-73.56538817049523
 20
52.99001767243633
 30
0.0
 11
-73.56538817049523
 21
52.0900176724363
 31
0.0
  0
LINE
  5
212
330
1F
100
AcDbEntity
  8
0
  6
Continuous
 62
     2
370
    25
100
AcDbLine
 10
-74.16538817049522
 20
52.99001767243633
 30
0.0
 11
-74.16538817049522
 21
52.09001767243618
 31
0.0
  0
ARC
  5
213
330
1F
100
AcDbEntity
  8
0
  6
Continuous
 62
     2
370
    25
100
AcDbCircle
 10
-75.16538817049516
 20
52.09001767243618
 30
0.0
 40
1.0
100
AcDbArc
 50
269.9999999999989
 51
0.0
  0
ARC
  5
214
330
1F
100
AcDbEntity
  8
0
  6
Continuous
 62
     2
370
    25
100
AcDbCircle
 10
-75.16538817049516
 20
49.49001767243616
 30
0.0
 40
1.0
100
AcDbArc
 50
0.0
 51
90.0000000000011
  0
ARC
  5
215
330
1F
100
AcDbEntity
  8
0
  6
Continuous
 62
     2
370
    25
100
AcDbCircle
 10
-72.56538817049517
 20
49.49001767243607
 30
0.0
 40
1.0
100
AcDbArc
 50
90.0000000000011
 51
180.0
  0
ARC
  5
216
330
1F
100
AcDbEntity
  8
0
  6
Continuous
 62
     2
370
    25
100
AcDbCircle
 10
-72.56538817049531
 20
52.0900176724363
 30
0.0
 40
1.0
100
AcDbArc
 50
180.0
 51
269.9999999999989
  0
ARC
  5
217
330
1F
100
AcDbEntity
  8
0
  6
Continuous
 62
     2
370
    25
100
AcDbCircle
 10
-73.86538817049524
 20
52.99001767243633
 30
0.0
 40
0.3
100
AcDbArc
 50
0.0
 51
180.0
  0
LINE
  5
218
330
1F
100
AcDbEntity
  8
0
  6
Continuous
 62
     2
370
    25
100
AcDbLine
 10
-76.0653881704954
 20
51.09001767243618
 30
0.0
 11
-75.16538817049536
 21
51.09001767243618
 31
0.0
  0
LINE
  5
219
330
1F
100
AcDbEntity
  8
0
  6
Continuous
 62
     2
370
    25
100
AcDbLine
 10
-76.0653881704954
 20
50.49001767243619
 30
0.0
 11
-75.16538817049525
 21
50.49001767243619
 31
0.0
  0
ARC
  5
21A
330
1F
100
AcDbEntity
  8
0
  6
Continuous
 62
     2
370
    25
100
AcDbCircle
 10
-76.0653881704954
 20
50.79001767243617
 30
0.0
 40
0.3
100
AcDbArc
 50
89.99999999999999
 51
269.9999999999999
  0
LINE
  5
21B
330
1F
100
AcDbEntity
  8
0
  6
Continuous
 62
     2
370
    25
100
AcDbLine
 10
-74.16538817049522
 20
48.59001767243601
 30
0.0
 11
-74.16538817049522
 21
49.49001767243605
 31
0.0
  0
LINE
  5
21C
330
1F
100
AcDbEntity
  8
0
  6
Continuous
 62
     2
370
    25
100
AcDbLine
 10
-73.56538817049525
 20
48.59001767243601
 30
0.0
 11
-73.56538817049525
 21
49.49001767243616
 31
0.0
  0
ARC
  5
21D
330
1F
100
AcDbEntity
  8
0
  6
Continuous
 62
     2
370
    25
100
AcDbCircle
 10
-73.86538817049524
 20
48.59001767243601
 30
0.0
 40
0.3
100
AcDbArc
 50
180.0
 51
359.9999999999999
  0
LINE
  5
21E
330
1F
100
AcDbEntity
  8
0
  6
Continuous
 62
     2
370
    25
100
AcDbLine
 10
-71.66538817049508
 20
50.49001767243619
 30
0.0
 11
-72.56538817049511
 21
50.49001767243619
 31
0.0
  0
LINE
  5
21F
330
1F
100
AcDbEntity
  8
0
  6
Continuous
 62
     2
370
    25
100
AcDbLine
 10
-71.66538817049508
 20
51.09001767243618
 30
0.0
 11
-72.56538817049523
 21
51.09001767243618
 31
0.0
  0
ARC
  5
220
330
1F
100
AcDbEntity
  8
0
  6
Continuous
 62
     2
370
    25
100
AcDbCircle
 10
-71.66538817049508
 20
50.79001767243617
 30
0.0
 40
0.3
100
AcDbArc
 50
269.9999999999999
 51
89.9999999999999
  0
POINT
  5
221
330
1F
100
AcDbEntity
  8
0
  6
Continuous
 62
     2
100
AcDbPoint
 10
56.13461182950464
 20
-23.20998232756379
 30
0.0
  0
TEXT
  5
222
330
1F
100
AcDbEntity
  8
0
 62
     7
100
AcDbText
 10
53.21284145247004
 20
-67.12688788519193
 30
0.0
 40
3.5
  1
抗
 41
0.6153846153846163
  7
dcStyle0
 72
     5
 11
56.01284145247005
 21
-67.12688788519193
 31
0.0
100
AcDbText
  0
TEXT
  5
223
330
1F
100
AcDbEntity
  8
0
 62
     7
100
AcDbText
 10
57.24558723048897
 20
-67.25656198467736
 30
0.0
 40
3.5
  1
菌
 41
0.6153846153846163
  7
dcStyle0
 72
     5
 11
60.04558723048898
 21
-67.25656198467736
 31
0.0
100
AcDbText
  0
TEXT
  5
224
330
1F
100
AcDbEntity
  8
0
 62
     7
100
AcDbText
 10
-85.61538818837668
 20
30.89001767243619
 30
0.0
 40
3.499999999999999
  1
20
 41
0.7692307692307694
  7
dcStyle0
 72
     5
 11
-82.11538818837668
 21
30.89001767243619
 31
0.0
100
AcDbText
  0
TEXT
  5
225
330
1F
100
AcDbEntity
  8
0
 62
     7
100
AcDbText
 10
-43.11538818837673
 20
30.89001767243619
 30
0.0
 40
3.499999999999999
  1
65
 41
0.7692307692307694
  7
dcStyle0
 72
     5
 11
-39.61538818837673
 21
30.89001767243619
 31
0.0
100
AcDbText
  0
TEXT
  5
226
330
1F
100
AcDbEntity
  8
0
 62
     7
100
AcDbText
 10
-3.115388188376766
 20
30.89001767243619
 30
0.0
 40
3.499999999999999
  1
15
 41
0.7692307692307692
  7
dcStyle0
 72
     5
 11
0.3846118116232327
 21
30.89001767243619
 31
0.0
100
AcDbText
  0
TEXT
  5
227
330
1F
100
AcDbEntity
  8
0
 62
     7
100
AcDbText
 10
-46.49038820625812
 20
22.89001767243618
 30
0.0
 40
3.499999999999999
  1
100
 41
0.7692307692307694
  7
dcStyle0
 72
     5
 11
-41.24038820625812
 21
22.89001767243618
 31
0.0
100
AcDbText
  0
TEXT
  5
228
330
1F
100
AcDbEntity
  8
0
 62
     7
100
AcDbText
 10
15.53461182950462
 20
-29.85998232756383
 30
0.0
 40
3.499999999999999
  1
10
 50
90.0
 41
0.7692307692307694
  7
dcStyle0
 72
     5
 11
15.53461182950462
 21
-26.35998232756383
 31
0.0
100
AcDbText
  0
TEXT
  5
229
330
1F
100
AcDbEntity
  8
0
 62
     7
100
AcDbText
 10
76.53461182950461
 20
-30.70998234544515
 30
0.0
 40
3.499999999999999
  1
12
 50
90.0
 41
0.7692307692307694
  7
dcStyle0
 72
     5
 11
76.53461182950461
 21
-27.20998234544515
 31
0.0
100
AcDbText
  0
TEXT
  5
22A
330
1F
100
AcDbEntity
  8
0
 62
     7
100
AcDbText
 10
76.53461182950461
 20
-51.85998232756376
 30
0.0
 40
3.499999999999999
  1
30
 50
90.0
 41
0.7692307692307694
  7
dcStyle0
 72
     5
 11
76.53461182950461
 21
-48.35998232756376
 31
0.0
100
AcDbText
  0
TEXT
  5
22B
330
1F
100
AcDbEntity
  8
0
 62
     7
100
AcDbText
 10
84.53461182950458
 20
-49.70998234544516
 30
0.0
 40
3.499999999999999
  1
50
 50
90.0
 41
0.7692307692307694
  7
dcStyle0
 72
     5
 11
84.53461182950458
 21
-46.20998234544516
 31
0.0
100
AcDbText
  0
TEXT
  5
22C
330
1F
100
AcDbEntity
  8
0
 62
     7
100
AcDbText
 10
54.88461181162323
 20
-10.15998232756376
 30
0.0
 40
3.499999999999999
  1
21
 41
0.7692307692307694
  7
dcStyle0
 72
     5
 11
58.38461181162323
 21
-10.15998232756376
 31
0.0
100
AcDbText
  0
LINE
  5
22D
330
1F
100
AcDbEntity
  8
0
  6
Continuous
 62
     3
370
    35
100
AcDbLine
 10
-93.66538817049522
 20
61.29001767243614
 30
0.0
 11
-14.06538817049526
 21
61.29001767243613
 31
0.0
  0
LINE
  5
22E
330
1F
100
AcDbEntity
  8
0
  6
Continuous
 62
     3
370
    35
100
AcDbLine
 10
-14.06538817049525
 20
40.29001767243614
 30
0.0
 11
-93.66538817049525
 21
40.29001767243614
 31
0.0
  0
LINE
  5
22F
330
1F
100
AcDbEntity
  8
0
  6
Continuous
 62
     3
370
    35
100
AcDbLine
 10
-93.86538817049522
 20
40.49001767243615
 30
0.0
 11
-93.86538817049522
 21
61.09001767243614
 31
0.0
  0
ARC
  5
230
330
1F
100
AcDbEntity
  8
0
  6
Continuous
 62
     3
370
    35
100
AcDbCircle
 10
-93.66538817049525
 20
40.49001767243615
 30
0.0
 40
0.2
100
AcDbArc
 50
180.0
 51
270.0
  0
ARC
  5
231
330
1F
100
AcDbEntity
  8
0
  6
Continuous
 62
     3
370
    35
100
AcDbCircle
 10
-93.66538817049522
 20
61.09001767243615
 30
0.0
 40
0.2
100
AcDbArc
 50
89.99999999999999
 51
180.0
  0
LINE
  5
232
330
1F
100
AcDbEntity
  8
0
  6
Continuous
 62
     3
370
    35
100
AcDbLine
 10
-93.86538817049525
 20
60.29001767243617
 30
0.0
 11
-44.06538817049523
 21
60.29001767243616
 31
0.0
  0
LINE
  5
233
330
1F
100
AcDbEntity
  8
0
  6
Continuous
 62
     3
370
    35
100
AcDbLine
 10
-93.86538817049525
 20
41.29001767243617
 30
0.0
 11
-44.06538817049523
 21
41.29001767243616
 31
0.0
  0
LINE
  5
234
330
1F
100
AcDbEntity
  8
0
  6
Continuous
 62
     3
370
    35
100
AcDbLine
 10
-43.86538817049522
 20
60.49001767243616
 30
0.0
 11
-43.86538817049525
 21
61.29001767243617
 31
0.0
  0
ARC
  5
235
330
1F
100
AcDbEntity
  8
0
  6
Continuous
 62
     3
370
    35
100
AcDbCircle
 10
-44.06538817049523
 20
60.49001767243616
 30
0.0
 40
0.2
100
AcDbArc
 50
270.0
 51
0.0
  0
LINE
  5
236
330
1F
100
AcDbEntity
  8
0
  6
Continuous
 62
     3
370
    35
100
AcDbLine
 10
-43.86538817049522
 20
41.09001767243617
 30
0.0
 11
-43.86538817049524
 21
40.29001767243617
 31
0.0
  0
ARC
  5
237
330
1F
100
AcDbEntity
  8
0
  6
Continuous
 62
     3
370
    35
100
AcDbCircle
 10
-44.06538817049523
 20
41.09001767243617
 30
0.0
 40
0.2
100
AcDbArc
 50
0.0
 51
90.0
  0
ARC
  5
238
330
1F
100
AcDbEntity
  8
0
  6
Continuous
 62
     3
370
    35
100
AcDbCircle
 10
-14.06538817049526
 20
40.49001767243615
 30
0.0
 40
0.2
100
AcDbArc
 50
270.0
 51
0.0
  0
ARC
  5
239
330
1F
100
AcDbEntity
  8
0
  6
Continuous
 62
     3
370
    35
100
AcDbCircle
 10
-14.06538817049526
 20
61.09001767243614
 30
0.0
 40
0.2
100
AcDbArc
 50
0.0
 51
90.0
  0
CIRCLE
  5
23A
330
1F
100
AcDbEntity
  8
0
  6
Continuous
 62
     3
370
    35
100
AcDbCircle
 10
-8.865388170495276
 20
50.79001767243617
 30
0.0
 40
2.2
  0
LINE
  5
23B
330
1F
100
AcDbEntity
  8
0
  6
Continuous
 62
     3
370
    35
100
AcDbLine
 10
-93.66538817049535
 20
-22.95998232756379
 30
0.0
 11
-14.06538817049535
 21
-22.95998232756379
 31
0.0
  0
LINE
  5
23C
330
1F
100
AcDbEntity
  8
0
  6
Continuous
 62
     3
370
    35
100
AcDbLine
 10
-84.85402306634089
 20
-72.95998232756378
 30
0.0
 11
-92.85518302615891
 21
-72.95998232756378
 31
0.0
  0
ARC
  5
23D
330
1F
100
AcDbEntity
  8
0
  6
Continuous
 62
     3
370
    35
100
AcDbCircle
 10
-84.85402306634087
 20
-71.95998232756378
 30
0.0
 40
1.0
100
AcDbArc
 50
270.0
 51
357.9286170236471
  0
ARC
  5
23E
330
1F
100
AcDbEntity
  8
0
  6
Continuous
 62
     3
370
    35
100
AcDbCircle
 10
-92.85518302615888
 20
-71.95998232756378
 30
0.0
 40
1.0
100
AcDbArc
 50
178.8306171943859
 51
270.0
  0
LINE
  5
23F
330
1F
100
AcDbEntity
  8
0
  6
Continuous
 62
     3
370
    35
100
AcDbLine
 10
-43.38114035968546
 20
-32.95998232756379
 30
0.0
 11
-14.06538817049535
 21
-32.95998232756379
 31
0.0
  0
LINE
  5
240
330
1F
100
AcDbEntity
  8
0
  6
Continuous
 62
     3
370
    35
100
AcDbLine
 10
-93.86538817049531
 20
-71.93957416429848
 30
0.0
 11
-93.86538817049534
 21
-23.15998232756378
 31
0.0
  0
ARC
  5
241
330
1F
100
AcDbEntity
  8
0
  6
Continuous
 62
     3
370
    35
100
AcDbCircle
 10
-93.66538817049535
 20
-23.15998232756379
 30
0.0
 40
0.2
100
AcDbArc
 50
89.99999999999999
 51
180.0
  0
LINE
  5
242
330
1F
100
AcDbEntity
  8
0
  6
Continuous
 62
     3
370
    35
100
AcDbLine
 10
-13.86538817049535
 20
-23.15998232756379
 30
0.0
 11
-13.86538817049535
 21
-23.20998232756378
 31
0.0
  0
ARC
  5
243
330
1F
100
AcDbEntity
  8
0
  6
Continuous
 62
     3
370
    35
100
AcDbCircle
 10
-14.06538817049535
 20
-32.75998232756379
 30
0.0
 40
0.2
100
AcDbArc
 50
270.0
 51
0.0
  0
ARC
  5
244
330
1F
100
AcDbEntity
  8
0
  6
Continuous
 62
     3
370
    35
100
AcDbCircle
 10
-14.06538817049535
 20
-23.15998232756379
 30
0.0
 40
0.2
100
AcDbArc
 50
0.0
 51
90.0
  0
LINE
  5
245
330
1F
100
AcDbEntity
  8
0
  6
Continuous
 62
     3
370
    35
100
AcDbLine
 10
-10.86538817049533
 20
-23.20998232756378
 30
0.0
 11
-10.86538817049533
 21
-22.95998232756381
 31
0.0
  0
LINE
  5
246
330
1F
100
AcDbEntity
  8
0
  6
Continuous
 62
     3
370
    35
100
AcDbLine
 10
-11.06538817049535
 20
-22.9599823275638
 30
0.0
 11
-10.86538817049533
 21
-22.9599823275638
 31
0.0
  0
LINE
  5
247
330
1F
100
AcDbEntity
  8
0
  6
Continuous
 62
     3
370
    35
100
AcDbLine
 10
-6.865388170495362
 20
-22.95998232756379
 30
0.0
 11
-6.665388170495345
 21
-22.95998232756379
 31
0.0
  0
LINE
  5
248
330
1F
100
AcDbEntity
  8
0
  6
Continuous
 62
     3
370
    35
100
AcDbLine
 10
-6.865388170495362
 20
-22.9599823275638
 30
0.0
 11
-6.865388170495362
 21
-23.20998232756378
 31
0.0
  0
ARC
  5
249
330
1F
100
AcDbEntity
  8
0
  6
Continuous
 62
     3
370
    35
100
AcDbCircle
 10
-8.865388170495333
 20
-22.95998232756379
 30
0.0
 40
2.2
100
AcDbArc
 50
359.9999999999998
 51
180.0000000000003
  0
ARC
  5
24A
330
1F
100
AcDbEntity
  8
0
  6
Continuous
 62
     3
370
    35
100
AcDbCircle
 10
-43.38114035968545
 20
-73.45998232756378
 30
0.0
 40
40.5
100
AcDbArc
 50
89.99999999999999
 51
177.9286170236471
  0
LINE
  5
24B
330
1F
100
AcDbEntity
  8
0
  6
Continuous
 62
     3
370
    35
100
AcDbLine
 10
67.13461182950464
 20
-31.40440770695606
 30
0.0
 11
67.13461182950464
 21
-62.45998232756378
 31
0.0
  0
LINE
  5
24C
330
1F
100
AcDbEntity
  8
0
  6
Continuous
 62
     3
370
    35
100
AcDbLine
 10
46.13461182950464
 20
-62.45998232756378
 30
0.0
 11
46.13461182950464
 21
-31.40440770695603
 31
0.0
  0
ARC
  5
24D
330
1F
100
AcDbEntity
  8
0
  6
Continuous
 62
     3
370
    35
100
AcDbCircle
 10
56.63461182950464
 20
-62.45998232756379
 30
0.0
 40
10.5
100
AcDbArc
 50
180.0
 51
0.0
  0
ARC
  5
24E
330
1F
100
AcDbEntity
  8
0
  6
Continuous
 62
     3
370
    35
100
AcDbCircle
 10
56.63461182950466
 20
-22.95998232756379
 30
0.0
 40
2.2
100
AcDbArc
 50
359.9999999999998
 51
180.0000000000003
  0
LINE
  5
24F
330
1F
100
AcDbEntity
  8
0
  6
Continuous
 62
     3
370
    35
100
AcDbLine
 10
-13.86538817049528
 20
40.29001767243617
 30
0.0
 11
-13.86538817049525
 21
61.29001767243617
 31
0.0
  0
CIRCLE
  5
250
330
1F
100
AcDbEntity
  8
0
  6
Continuous
 62
     3
370
    35
100
AcDbCircle
 10
-8.865388170495262
 20
50.79001767243617
 30
0.0
 40
2.05
  0
LINE
  5
251
330
1F
100
AcDbEntity
  8
0
  6
Continuous
 62
     3
370
    35
100
AcDbLine
 10
-13.86538817049527
 20
-23.20998232756378
 30
0.0
 11
-13.86538817049527
 21
-32.75998232756373
 31
0.0
  0
LINE
  5
252
330
1F
100
AcDbEntity
  8
0
  6
Continuous
 62
     2
370
    35
100
AcDbLine
 10
47.13461182950464
 20
-22.95998232756379
 30
0.0
 11
66.13461182950464
 21
-22.95998232756379
 31
0.0
  0
ARC
  5
253
330
1F
100
AcDbEntity
  8
0
  6
Continuous
 62
     2
370
    35
100
AcDbCircle
 10
66.13461182950466
 20
-23.95998232756379
 30
0.0
 40
1.0
100
AcDbArc
 50
0.0
 51
90.0
  0
ARC
  5
254
330
1F
100
AcDbEntity
  8
0
  6
Continuous
 62
     2
370
    35
100
AcDbCircle
 10
47.13461182950464
 20
-23.95998232756379
 30
0.0
 40
1.0
100
AcDbArc
 50
89.99999999999999
 51
180.0
  0
ARC
  5
255
330
1F
100
AcDbEntity
  8
0
  6
Continuous
 62
     2
370
    35
100
AcDbCircle
 10
56.63461182950466
 20
49.54001767243617
 30
0.0
 40
82.5
100
AcDbArc
 50
263.3061335325274
 51
276.6938664674724
  0
ARC
  5
256
330
1F
100
AcDbEntity
  8
0
  6
Continuous
 62
     2
370
    35
100
AcDbCircle
 10
47.13461182950464
 20
-31.40440770695603
 30
0.0
 40
1.0
100
AcDbArc
 50
180.0
 51
263.3061335325277
  0
ARC
  5
257
330
1F
100
AcDbEntity
  8
0
  6
Continuous
 62
     2
370
    35
100
AcDbCircle
 10
66.13461182950464
 20
-31.40440770695606
 30
0.0
 40
1.0
100
AcDbArc
 50
276.6938664674723
 51
0.0
  0
LINE
  5
258
330
1F
100
AcDbEntity
  8
0
  6
Continuous
 62
     2
370
    35
100
AcDbLine
 10
-13.86538817049525
 20
61.29001767243617
 30
0.0
 11
-4.365388170495248
 21
61.29001767243614
 31
0.0
  0
LINE
  5
259
330
1F
100
AcDbEntity
  8
0
  6
Continuous
 62
     2
370
    35
100
AcDbLine
 10
-4.365388170495277
 20
40.29001767243616
 30
0.0
 11
-13.86538817049528
 21
40.29001767243617
 31
0.0
  0
ARC
  5
25A
330
1F
100
AcDbEntity
  8
0
  6
Continuous
 62
     2
370
    35
100
AcDbCircle
 10
-4.365388170495263
 20
50.79001767243614
 30
0.0
 40
10.5
100
AcDbArc
 50
269.9999999999999
 51
89.9999999999999
  0
LINE
  5
25B
330
1F
100
AcDbEntity
  8
0
  6
Continuous
 62
     2
370
    35
100
AcDbLine
 10
5.134611829504638
 20
-23.2099823275638
 30
0.0
 11
-10.86538817049533
 21
-23.20998232756378
 31
0.0
  0
LINE
  5
25C
330
1F
100
AcDbEntity
  8
0
  6
Continuous
 62
     2
370
    35
100
AcDbLine
 10
-10.86538817049533
 20
-23.20998232756378
 30
0.0
 11
-13.86538817049536
 21
-23.20998232756378
 31
0.0
  0
LINE
  5
25D
330
1F
100
AcDbEntity
  8
0
  6
Continuous
 62
     2
370
    35
100
AcDbLine
 10
-13.86538817049536
 20
-32.70998232756378
 30
0.0
 11
5.134611829504638
 21
-32.7099823275638
 31
0.0
  0
LINE
  5
25E
330
1F
100
AcDbEntity
  8
0
  6
Continuous
 62
     2
370
    35
100
AcDbLine
 10
6.134611829504638
 20
-31.7099823275638
 30
0.0
 11
6.134611829504638
 21
-24.2099823275638
 31
0.0
  0
ARC
  5
25F
330
1F
100
AcDbEntity
  8
0
  6
Continuous
 62
     2
370
    35
100
AcDbCircle
 10
5.134611829504638
 20
-31.7099823275638
 30
0.0
 40
1.0
100
AcDbArc
 50
270.0000000000001
 51
0.0
  0
ARC
  5
260
330
1F
100
AcDbEntity
  8
0
  6
Continuous
 62
     2
370
    35
100
AcDbCircle
 10
5.134611829504638
 20
-24.2099823275638
 30
0.0
 40
1.0
100
AcDbArc
 50
0.0
 51
90.0
  0
LINE
  5
261
330
1F
100
AcDbEntity
  8
0
  6
Continuous
 62
     2
370
    35
100
AcDbLine
 10
67.13461182950466
 20
-23.95998232756392
 30
0.0
 11
67.13461182950466
 21
-31.40440770695606
 31
0.0
  0
LINE
  5
262
330
1F
100
AcDbEntity
  8
0
  6
Continuous
 62
     2
370
    35
100
AcDbLine
 10
46.13461182950464
 20
-23.95998232756392
 30
0.0
 11
46.13461182950464
 21
-31.40440770695614
 31
0.0
  0
LINE
  5
263
330
1F
100
AcDbEntity
  8
0
  6
DASHED2
 62
     3
370
    13
100
AcDbLine
 10
-86.01121664304138
 20
-70.95998232756378
 30
0.0
 11
-93.8653881704954
 21
-70.95998232756378
 31
0.0
  0
ARC
  5
264
330
1F
100
AcDbEntity
  8
0
  6
DASHED2
 62
     3
370
    13
100
AcDbCircle
 10
-43.39197386164516
 20
-73.38489084795151
 30
0.0
 40
42.5
100
AcDbArc
 50
97.63978129031177
 51
176.4723094579801
  0
LINE
  5
265
330
1F
100
AcDbEntity
  8
0
  6
DASHED2
 62
     3
370
    13
100
AcDbLine
 10
-71.8653881704954
 20
-24.9599823275638
 30
0.0
 11
-49.06538817049538
 21
-24.95998232756381
 31
0.0
  0
LINE
  5
266
330
1F
100
AcDbEntity
  8
0
  6
DASHED2
 62
     3
370
    13
100
AcDbLine
 10
-48.86538817049539
 20
-25.1599823275638
 30
0.0
 11
-48.86538817049539
 21
-31.06347345580676
 31
0.0
  0
ARC
  5
267
330
1F
100
AcDbEntity
  8
0
  6
DASHED2
 62
     3
370
    13
100
AcDbCircle
 10
-49.06538817049538
 20
-31.06347345580676
 30
0.0
 40
0.2
100
AcDbArc
 50
276.6804065899628
 51
0.0
  0
ARC
  5
268
330
1F
100
AcDbEntity
  8
0
  6
DASHED2
 62
     3
370
    13
100
AcDbCircle
 10
-49.06538817049538
 20
-25.1599823275638
 30
0.0
 40
0.2
100
AcDbArc
 50
0.0
 51
90.0
  0
LINE
  5
269
330
1F
100
AcDbEntity
  8
0
  6
DASHED2
 62
     3
370
    13
100
AcDbLine
 10
-93.8653881704954
 20
-24.9599823275638
 30
0.0
 11
-75.8653881704954
 21
-24.9599823275638
 31
0.0
  0
LINE
  5
26A
330
1F
100
AcDbEntity
  8
0
  6
DASHED2
 62
     4
370
    13
100
AcDbLine
 10
-89.8653881704954
 20
-70.75998232756379
 30
0.0
 11
-93.8653881704954
 21
-70.75998232756379
 31
0.0
  0
LINE
  5
26B
330
1F
100
AcDbEntity
  8
0
  6
DASHED2
 62
     4
370
    13
100
AcDbLine
 10
-89.8653881704954
 20
-70.75998232756379
 30
0.0
 11
-89.8653881704954
 21
-30.9599823275638
 31
0.0
  0
LINE
  5
26C
330
1F
100
AcDbEntity
  8
0
  6
DASHED2
 62
     4
370
    13
100
AcDbLine
 10
-87.8653881704954
 20
-28.9599823275638
 30
0.0
 11
-68.8653881704954
 21
-28.95998232756381
 31
0.0
  0
ARC
  5
26D
330
1F
100
AcDbEntity
  8
0
  6
DASHED2
 62
     4
370
    13
100
AcDbCircle
 10
-87.8653881704954
 20
-30.9599823275638
 30
0.0
 40
2.0
100
AcDbArc
 50
89.99999999999997
 51
180.0
  0
LINE
  5
26E
330
1F
100
AcDbEntity
  8
0
  6
DASHED2
 62
     4
370
    13
100
AcDbLine
 10
-68.8653881704954
 20
-24.9599823275638
 30
0.0
 11
-68.8653881704954
 21
-28.9599823275638
 31
0.0
  0
VIEWPORT
  5
AE
102
{ACAD_XDICTIONARY
360
276
102
}
330
1B
100
AcDbEntity
 67
     1
  8
0
100
AcDbViewport
 10
-0.0000000000000568
 20
0.0
 30
0.0
 40
1130.4
 41
829.8136179113842
 68
     1
 69
     1
 12
-0.0000000000000568
 22
0.0
 13
0.0
 23
0.0
 14
0.5
 24
0.5
 15
0.0
 25
0.0
 16
0.0
 26
0.0
 36
1.0
 17
0.0
 27
0.0
 37
0.0
 42
50.0
 43
0.0
 44
0.0
 45
829.8136179113842
 50
0.0
 51
0.0
 72
   100
 90
   557152
  1

281
     0
 71
     1
 74
     0
110
0.0
120
0.0
130
0.0
111
1.0
121
0.0
131
0.0
112
0.0
122
1.0
132
0.0
 79
     0
146
0.0
  0
ENDSEC
  0
SECTION
  2
OBJECTS
  0
DICTIONARY
  5
C
330
0
100
AcDbDictionary
281
     1
  3
ACAD_GROUP
350
D
  3
ACAD_LAYOUT
350
1A
  3
ACAD_MATERIAL
350
43
  3
ACAD_MLEADERSTYLE
350
271
  3
ACAD_MLINESTYLE
350
17
  3
ACAD_PLOTSETTINGS
350
19
  3
ACAD_PLOTSTYLENAME
350
E
  3
ACAD_SCALELIST
350
47
  3
ACAD_VISUALSTYLE
350
2A
  3
AcDbVariableDictionary
350
26F
  0
DICTIONARY
  5
278
330
8
100
AcDbDictionary
280
     1
281
     1
  3
ACAD_XREC_ROUNDTRIP
360
279
  0
DICTIONARY
  5
276
330
AE
100
AcDbDictionary
280
     1
281
     1
  3
ACAD_XREC_ROUNDTRIP
360
277
  0
DICTIONARY
  5
D
102
{ACAD_REACTORS
330
C
102
}
330
C
100
AcDbDictionary
281
     1
  0
DICTIONARY
  5
1A
102
{ACAD_REACTORS
330
C
102
}
330
C
100
AcDbDictionary
281
     1
  3
Layout1
350
1E
  3
Layout2
350
26
  3
Model
350
22
  0
DICTIONARY
  5
43
102
{ACAD_REACTORS
330
C
102
}
330
C
100
AcDbDictionary
281
     1
  3
ByBlock
350
45
  3
ByLayer
350
44
  3
Global
350
46
  0
DICTIONARY
  5
271
102
{ACAD_REACTORS
330
C
102
}
330
C
100
AcDbDictionary
281
     1
  0
DICTIONARY
  5
17
102
{ACAD_REACTORS
330
C
102
}
330
C
100
AcDbDictionary
281
     1
  3
Standard
350
18
  0
DICTIONARY
  5
19
102
{ACAD_REACTORS
330
C
102
}
330
C
100
AcDbDictionary
281
     1
  0
ACDBDICTIONARYWDFLT
  5
E
102
{ACAD_REACTORS
330
C
102
}
330
C
100
AcDbDictionary
281
     1
  3
Normal
350
F
100
AcDbDictionaryWithDefault
340
F
  0
DICTIONARY
  5
47
102
{ACAD_REACTORS
330
C
102
}
330
C
100
AcDbDictionary
281
     1
  3
A0
350
48
  3
A1
350
49
  3
A2
350
4A
  3
A3
350
4B
  3
A4
350
4C
  3
A5
350
4D
  3
A6
350
4E
  3
A7
350
4F
  3
A8
350
50
  3
A9
350
51
  3
B0
350
52
  3
B1
350
53
  3
B2
350
54
  3
B3
350
55
  3
B4
350
56
  3
B5
350
57
  3
B6
350
58
  3
B7
350
59
  3
B8
350
5A
  3
B9
350
5B
  3
C0
350
5C
  3
C1
350
5D
  3
C2
350
5E
  3
C3
350
5F
  3
C4
350
60
  3
C5
350
61
  3
C6
350
62
  3
C7
350
63
  3
C8
350
64
  3
C9
350
65
  3
D0
350
66
  3
D1
350
67
  3
D2
350
68
  0
DICTIONARY
  5
2A
102
{ACAD_REACTORS
330
C
102
}
330
C
100
AcDbDictionary
281
     1
  3
2dWireframe
350
2F
  3
Basic
350
32
  3
Brighten
350
36
  3
ColorChange
350
3A
  3
Conceptual
350
34
  3
Dim
350
35
  3
EdgeColorOff
350
3D
  3
Facepattern
350
39
  3
Flat
350
2B
  3
FlatWithEdges
350
2C
  3
Gouraud
350
2D
  3
GouraudWithEdges
350
2E
  3
Hidden
350
31
  3
JitterOff
350
3B
  3
Linepattern
350
38
  3
OverhangOff
350
3C
  3
Realistic
350
33
  3
Shaded
350
42
  3
Shaded with edges
350
41
  3
Shades of Gray
350
3E
  3
Sketchy
350
3F
  3
Thicken
350
37
  3
Wireframe
350
30
  3
X-Ray
350
40
  0
DICTIONARY
  5
26F
102
{ACAD_REACTORS
330
C
102
}
330
C
100
AcDbDictionary
281
     1
  3
CANNOSCALE
350
27A
  3
DIMASSOC
350
274
  3
HIDETEXT
350
275
  3
MSLTSCALE
350
27B
  0
XRECORD
  5
279
102
{ACAD_REACTORS
330
278
102
}
330
278
100
AcDbXrecord
280
     1
102
VTR_0.000_0.000_1.000_1.000_GRIDDISPLAY
 70
     3
102
VTR_0.000_0.000_1.000_1.000_GRIDMAJOR
 70
     5
102
VTR_0.000_0.000_1.000_1.000_DEFAULTLIGHTING
280
     1
102
VTR_0.000_0.000_1.000_1.000_DEFAULTLIGHTINGTYPE
 70
     1
102
VTR_0.000_0.000_1.000_1.000_BRIGHTNESS
141
0.0
102
VTR_0.000_0.000_1.000_1.000_CONTRAST
142
0.0
  0
XRECORD
  5
277
102
{ACAD_REACTORS
330
276
102
}
330
276
100
AcDbXrecord
280
     1
102
GRIDDISPLAY
 70
     2
102
GRIDMAJOR
 70
     5
102
DEFAULTLIGHTING
280
     1
102
DEFAULTLIGHTINGTYPE
 70
     1
102
BRIGHTNESS
141
0.0
102
CONTRAST
142
0.0
  0
LAYOUT
  5
1E
102
{ACAD_REACTORS
330
1A
102
}
330
1A
100
AcDbPlotSettings
  1

  2
none_device
  4

  6

 40
0.0
 41
0.0
 42
0.0
 43
0.0
 44
0.0
 45
0.0
 46
0.0
 47
0.0
 48
0.0
 49
0.0
140
0.0
141
0.0
142
1.0
143
1.0
 70
   688
 72
     0
 73
     0
 74
     5
  7

 75
    16
147
1.0
148
0.0
149
0.0
100
AcDbLayout
  1
Layout1
 70
     0
 71
     1
 10
0.0
 20
0.0
 11
12.0
 21
9.0
 12
0.0
 22
0.0
 32
0.0
 14
1.000000000000000E+20
 24
1.000000000000000E+20
 34
1.000000000000000E+20
 15
-1.000000000000000E+20
 25
-1.000000000000000E+20
 35
-1.000000000000000E+20
146
0.0
 13
0.0
 23
0.0
 33
0.0
 16
1.0
 26
0.0
 36
0.0
 17
0.0
 27
1.0
 37
0.0
 76
     0
330
1B
331
AE
  0
LAYOUT
  5
26
102
{ACAD_REACTORS
330
1A
102
}
330
1A
100
AcDbPlotSettings
  1

  2
none_device
  4

  6

 40
0.0
 41
0.0
 42
0.0
 43
0.0
 44
0.0
 45
0.0
 46
0.0
 47
0.0
 48
0.0
 49
0.0
140
0.0
141
0.0
142
1.0
143
1.0
 70
   688
 72
     0
 73
     0
 74
     5
  7

 75
    16
147
1.0
148
0.0
149
0.0
100
AcDbLayout
  1
Layout2
 70
     1
 71
     2
 10
0.0
 20
0.0
 11
0.0
 21
0.0
 12
0.0
 22
0.0
 32
0.0
 14
0.0
 24
0.0
 34
0.0
 15
0.0
 25
0.0
 35
0.0
146
0.0
 13
0.0
 23
0.0
 33
0.0
 16
1.0
 26
0.0
 36
0.0
 17
0.0
 27
1.0
 37
0.0
 76
     0
330
23
  0
LAYOUT
  5
22
102
{ACAD_REACTORS
330
1A
102
}
330
1A
100
AcDbPlotSettings
  1

  2
none_device
  4
Letter_(8.50_x_11.00_Inches)
  6

 40
6.35
 41
6.35
 42
6.35000508
 43
6.35000508
 44
215.9
 45
279.4
 46
0.0
 47
0.0
 48
0.0
 49
0.0
140
0.0
141
0.0
142
1.0
143
1.0
 70
  1712
 72
     0
 73
     0
 74
     0
  7

 75
     0
147
1.0
148
0.0
149
0.0
100
AcDbLayout
  1
Model
 70
     1
 71
     0
 10
-210.0
 20
-148.5
 11
210.0
 21
148.5
 12
0.0
 22
0.0
 32
0.0
 14
-565.2000000000002
 24
-414.9068089556921
 34
0.0
 15
565.2
 25
414.9068089556921
 35
0.0
146
0.0
 13
0.0
 23
0.0
 33
0.0
 16
1.0
 26
0.0
 36
0.0
 17
0.0
 27
1.0
 37
0.0
 76
     0
330
1F
331
29
  0
MATERIAL
  5
45
102
{ACAD_REACTORS
330
43
102
}
102
{ACAD_XDICTIONARY
360
2AE
102
}
330
43
100
AcDbMaterial
  1
ByBlock
  0
MATERIAL
  5
44
102
{ACAD_REACTORS
330
43
102
}
102
{ACAD_XDICTIONARY
360
2AC
102
}
330
43
100
AcDbMaterial
  1
ByLayer
  0
MATERIAL
  5
46
102
{ACAD_REACTORS
330
43
102
}
102
{ACAD_XDICTIONARY
360
2B0
102
}
330
43
100
AcDbMaterial
  1
Global
  0
MLINESTYLE
  5
18
102
{ACAD_REACTORS
330
17
102
}
330
17
100
AcDbMlineStyle
  2
Standard
 70
     0
  3

 62
   256
 51
90.0
 52
90.0
 71
     2
 49
0.5
 62
   256
  6
BYLAYER
 49
-0.5
 62
   256
  6
BYLAYER
  0
ACDBPLACEHOLDER
  5
F
102
{ACAD_REACTORS
330
E
102
}
330
E
  0
SCALE
  5
48
102
{ACAD_REACTORS
330
47
102
}
330
47
100
AcDbScale
 70
     0
300
1:1
140
1.0
141
1.0
290
     1
  0
SCALE
  5
49
102
{ACAD_REACTORS
330
47
102
}
330
47
100
AcDbScale
 70
     0
300
1:2
140
1.0
141
2.0
290
     0
  0
SCALE
  5
4A
102
{ACAD_REACTORS
330
47
102
}
330
47
100
AcDbScale
 70
     0
300
1:4
140
1.0
141
4.0
290
     0
  0
SCALE
  5
4B
102
{ACAD_REACTORS
330
47
102
}
330
47
100
AcDbScale
 70
     0
300
1:5
140
1.0
141
5.0
290
     0
  0
SCALE
  5
4C
102
{ACAD_REACTORS
330
47
102
}
330
47
100
AcDbScale
 70
     0
300
1:8
140
1.0
141
8.0
290
     0
  0
SCALE
  5
4D
102
{ACAD_REACTORS
330
47
102
}
330
47
100
AcDbScale
 70
     0
300
1:10
140
1.0
141
10.0
290
     0
  0
SCALE
  5
4E
102
{ACAD_REACTORS
330
47
102
}
330
47
100
AcDbScale
 70
     0
300
1:16
140
1.0
141
16.0
290
     0
  0
SCALE
  5
4F
102
{ACAD_REACTORS
330
47
102
}
330
47
100
AcDbScale
 70
     0
300
1:20
140
1.0
141
20.0
290
     0
  0
SCALE
  5
50
102
{ACAD_REACTORS
330
47
102
}
330
47
100
AcDbScale
 70
     0
300
1:30
140
1.0
141
30.0
290
     0
  0
SCALE
  5
51
102
{ACAD_REACTORS
330
47
102
}
330
47
100
AcDbScale
 70
     0
300
1:40
140
1.0
141
40.0
290
     0
  0
SCALE
  5
52
102
{ACAD_REACTORS
330
47
102
}
330
47
100
AcDbScale
 70
     0
300
1:50
140
1.0
141
50.0
290
     0
  0
SCALE
  5
53
102
{ACAD_REACTORS
330
47
102
}
330
47
100
AcDbScale
 70
     0
300
1:100
140
1.0
141
100.0
290
     0
  0
SCALE
  5
54
102
{ACAD_REACTORS
330
47
102
}
330
47
100
AcDbScale
 70
     0
300
2:1
140
2.0
141
1.0
290
     0
  0
SCALE
  5
55
102
{ACAD_REACTORS
330
47
102
}
330
47
100
AcDbScale
 70
     0
300
4:1
140
4.0
141
1.0
290
     0
  0
SCALE
  5
56
102
{ACAD_REACTORS
330
47
102
}
330
47
100
AcDbScale
 70
     0
300
8:1
140
8.0
141
1.0
290
     0
  0
SCALE
  5
57
102
{ACAD_REACTORS
330
47
102
}
330
47
100
AcDbScale
 70
     0
300
10:1
140
10.0
141
1.0
290
     0
  0
SCALE
  5
58
102
{ACAD_REACTORS
330
47
102
}
330
47
100
AcDbScale
 70
     0
300
100:1
140
100.0
141
1.0
290
     0
  0
SCALE
  5
59
102
{ACAD_REACTORS
330
47
102
}
330
47
100
AcDbScale
 70
     0
300
1/128" = 1'-0"
140
0.0078125
141
12.0
290
     0
  0
SCALE
  5
5A
102
{ACAD_REACTORS
330
47
102
}
330
47
100
AcDbScale
 70
     0
300
1/64" = 1'-0"
140
0.015625
141
12.0
290
     0
  0
SCALE
  5
5B
102
{ACAD_REACTORS
330
47
102
}
330
47
100
AcDbScale
 70
     0
300
1/32" = 1'-0"
140
0.03125
141
12.0
290
     0
  0
SCALE
  5
5C
102
{ACAD_REACTORS
330
47
102
}
330
47
100
AcDbScale
 70
     0
300
1/16" = 1'-0"
140
0.0625
141
12.0
290
     0
  0
SCALE
  5
5D
102
{ACAD_REACTORS
330
47
102
}
330
47
100
AcDbScale
 70
     0
300
3/32" = 1'-0"
140
0.09375
141
12.0
290
     0
  0
SCALE
  5
5E
102
{ACAD_REACTORS
330
47
102
}
330
47
100
AcDbScale
 70
     0
300
1/8" = 1'-0"
140
0.125
141
12.0
290
     0
  0
SCALE
  5
5F
102
{ACAD_REACTORS
330
47
102
}
330
47
100
AcDbScale
 70
     0
300
3/16" = 1'-0"
140
0.1875
141
12.0
290
     0
  0
SCALE
  5
60
102
{ACAD_REACTORS
330
47
102
}
330
47
100
AcDbScale
 70
     0
300
1/4" = 1'-0"
140
0.25
141
12.0
290
     0
  0
SCALE
  5
61
102
{ACAD_REACTORS
330
47
102
}
330
47
100
AcDbScale
 70
     0
300
3/8" = 1'-0"
140
0.375
141
12.0
290
     0
  0
SCALE
  5
62
102
{ACAD_REACTORS
330
47
102
}
330
47
100
AcDbScale
 70
     0
300
1/2" = 1'-0"
140
0.5
141
12.0
290
     0
  0
SCALE
  5
63
102
{ACAD_REACTORS
330
47
102
}
330
47
100
AcDbScale
 70
     0
300
3/4" = 1'-0"
140
0.75
141
12.0
290
     0
  0
SCALE
  5
64
102
{ACAD_REACTORS
330
47
102
}
330
47
100
AcDbScale
 70
     0
300
1" = 1'-0"
140
1.0
141
12.0
290
     0
  0
SCALE
  5
65
102
{ACAD_REACTORS
330
47
102
}
330
47
100
AcDbScale
 70
     0
300
1-1/2" = 1'-0"
140
1.5
141
12.0
290
     0
  0
SCALE
  5
66
102
{ACAD_REACTORS
330
47
102
}
330
47
100
AcDbScale
 70
     0
300
3" = 1'-0"
140
3.0
141
12.0
290
     0
  0
SCALE
  5
67
102
{ACAD_REACTORS
330
47
102
}
330
47
100
AcDbScale
 70
     0
300
6" = 1'-0"
140
6.0
141
12.0
290
     0
  0
SCALE
  5
68
102
{ACAD_REACTORS
330
47
102
}
330
47
100
AcDbScale
 70
     0
300
1'-0" = 1'-0"
140
12.0
141
12.0
290
     0
  0
VISUALSTYLE
  5
2F
102
{ACAD_REACTORS
330
2A
102
}
102
{ACAD_XDICTIONARY
360
284
102
}
330
2A
100
AcDbVisualStyle
  2
2dWireframe
 70
     4
 71
     0
 72
     2
 73
     0
 90
        0
 40
0.6
 41
30.0
 62
     5
 63
     7
 74
     1
 91
        4
 64
     7
 65
   257
 75
     1
175
     1
 42
1.0
 92
        0
 66
   257
 43
1.0
 76
     1
 77
     6
 78
     2
 67
     7
 79
     5
170
     0
171
     0
290
     0
174
     0
 93
        1
 44
0.0
173
     0
291
     0
 45
0.0
1001
ACAD
1000
AcDbSavedByObjectVersion
1070
     0
  0
VISUALSTYLE
  5
32
102
{ACAD_REACTORS
330
2A
102
}
102
{ACAD_XDICTIONARY
360
28A
102
}
330
2A
100
AcDbVisualStyle
  2
Basic
 70
     7
 71
     1
 72
     0
 73
     1
 90
        0
 40
0.6
 41
30.0
 62
     5
 63
     7
 74
     0
 91
        4
 64
     7
 65
   257
 75
     1
175
     1
 42
1.0
 92
        8
 66
     7
 43
1.0
 76
     1
 77
     6
 78
     2
 67
     7
 79
     5
170
     0
171
     0
290
     0
174
     0
 93
        1
 44
0.0
173
     0
291
     1
 45
0.0
1001
ACAD
1000
AcDbSavedByObjectVersion
1070
     0
  0
VISUALSTYLE
  5
36
102
{ACAD_REACTORS
330
2A
102
}
102
{ACAD_XDICTIONARY
360
292
102
}
330
2A
100
AcDbVisualStyle
  2
Brighten
 70
    12
 71
     2
 72
     2
 73
     0
 90
        0
 40
0.6
 41
30.0
 62
     5
 63
     7
 74
     1
 91
        4
 64
     7
 65
   257
 75
     1
175
     1
 42
1.0
 92
        8
 66
     7
 43
1.0
 76
     1
 77
     6
 78
     2
 67
     7
 79
     5
170
     0
171
     0
290
     0
174
     0
 93
        1
 44
50.0
173
     0
291
     1
 45
0.0
1001
ACAD
1000
AcDbSavedByObjectVersion
1070
     0
  0
VISUALSTYLE
  5
3A
102
{ACAD_REACTORS
330
2A
102
}
102
{ACAD_XDICTIONARY
360
29A
102
}
330
2A
100
AcDbVisualStyle
  2
ColorChange
 70
    16
 71
     2
 72
     2
 73
     3
 90
        0
 40
0.6
 41
30.0
 62
     5
 63
     8
 74
     1
 91
        4
 64
     7
 65
   257
 75
     1
175
     1
 42
1.0
 92
        8
 66
     8
 43
1.0
 76
     1
 77
     6
 78
     2
 67
     7
 79
     5
170
     0
171
     0
290
     0
174
     0
 93
        1
 44
0.0
173
     0
291
     1
 45
0.0
1001
ACAD
1000
AcDbSavedByObjectVersion
1070
     0
  0
VISUALSTYLE
  5
34
102
{ACAD_REACTORS
330
2A
102
}
102
{ACAD_XDICTIONARY
360
28E
102
}
330
2A
100
AcDbVisualStyle
  2
Conceptual
 70
     9
 71
     3
 72
     2
 73
     0
 90
        0
 40
0.6
 41
30.0
 62
     5
 63
     7
 74
     2
 91
        2
 64
     7
 65
   257
 75
     1
175
     1
 42
179.0
 92
        8
 66
     7
 43
1.0
 76
     1
 77
     6
 78
     2
 67
     7
 79
     3
170
     0
171
     0
290
     0
174
     0
 93
        1
 44
0.0
173
     0
291
     0
 45
0.0
1001
ACAD
1000
AcDbSavedByObjectVersion
1070
     0
  0
VISUALSTYLE
  5
35
102
{ACAD_REACTORS
330
2A
102
}
102
{ACAD_XDICTIONARY
360
290
102
}
330
2A
100
AcDbVisualStyle
  2
Dim
 70
    11
 71
     2
 72
     2
 73
     0
 90
        0
 40
0.6
 41
30.0
 62
     5
 63
     7
 74
     1
 91
        4
 64
     7
 65
   257
 75
     1
175
     1
 42
1.0
 92
        8
 66
     7
 43
1.0
 76
     1
 77
     6
 78
     2
 67
     7
 79
     5
170
     0
171
     0
290
     0
174
     0
 93
        1
 44
-50.0
173
     0
291
     1
 45
0.0
1001
ACAD
1000
AcDbSavedByObjectVersion
1070
     0
  0
VISUALSTYLE
  5
3D
102
{ACAD_REACTORS
330
2A
102
}
102
{ACAD_XDICTIONARY
360
2A0
102
}
330
2A
100
AcDbVisualStyle
  2
EdgeColorOff
 70
    22
 71
     2
 72
     2
 73
     0
 90
        0
 40
0.6
 41
30.0
 62
     5
 63
     7
 74
     1
 91
        4
 64
     7
 65
   257
 75
     1
175
     1
 42
1.0
 92
        8
 66
     7
 43
1.0
 76
     1
 77
     6
 78
     2
 67
     7
 79
     5
170
     0
171
     0
290
     0
174
     0
 93
        1
 44
0.0
173
     0
291
     1
 45
0.0
1001
ACAD
1000
AcDbSavedByObjectVersion
1070
     0
  0
VISUALSTYLE
  5
39
102
{ACAD_REACTORS
330
2A
102
}
102
{ACAD_XDICTIONARY
360
298
102
}
330
2A
100
AcDbVisualStyle
  2
Facepattern
 70
    15
 71
     2
 72
     2
 73
     0
 90
        0
 40
0.6
 41
30.0
 62
     5
 63
     7
 74
     1
 91
        4
 64
     7
 65
   257
 75
     1
175
     1
 42
1.0
 92
        8
 66
     7
 43
1.0
 76
     1
 77
     6
 78
     2
 67
     7
 79
     5
170
     0
171
     0
290
     0
174
     0
 93
        1
 44
0.0
173
     0
291
     1
 45
0.0
1001
ACAD
1000
AcDbSavedByObjectVersion
1070
     0
  0
VISUALSTYLE
  5
2B
102
{ACAD_REACTORS
330
2A
102
}
102
{ACAD_XDICTIONARY
360
27C
102
}
330
2A
100
AcDbVisualStyle
  2
Flat
 70
     0
 71
     2
 72
     1
 73
     1
 90
        2
 40
0.6
 41
30.0
 62
     5
 63
     7
 74
     0
 91
        0
 64
     7
 65
   257
 75
     1
175
     1
 42
1.0
 92
        8
 66
     7
 43
1.0
 76
     1
 77
     6
 78
     2
 67
     7
 79
     5
170
     0
171
     0
290
     0
174
     0
 93
       13
 44
0.0
173
     0
291
     1
 45
0.0
1001
ACAD
1000
AcDbSavedByObjectVersion
1070
     0
  0
VISUALSTYLE
  5
2C
102
{ACAD_REACTORS
330
2A
102
}
102
{ACAD_XDICTIONARY
360
27E
102
}
330
2A
100
AcDbVisualStyle
  2
FlatWithEdges
 70
     1
 71
     2
 72
     1
 73
     1
 90
        2
 40
0.6
 41
30.0
 62
     5
 63
     7
 74
     1
 91
        0
 64
     7
 65
   257
 75
     1
175
     1
 42
1.0
 92
        0
 66
   257
 43
1.0
 76
     1
 77
     6
 78
     2
 67
     7
 79
     5
170
     0
171
     0
290
     0
174
     0
 93
       13
 44
0.0
173
     0
291
     1
 45
0.0
1001
ACAD
1000
AcDbSavedByObjectVersion
1070
     0
  0
VISUALSTYLE
  5
2D
102
{ACAD_REACTORS
330
2A
102
}
102
{ACAD_XDICTIONARY
360
280
102
}
330
2A
100
AcDbVisualStyle
  2
Gouraud
 70
     2
 71
     2
 72
     2
 73
     1
 90
        2
 40
0.6
 41
30.0
 62
     5
 63
     7
 74
     0
 91
        0
 64
     7
 65
   257
 75
     1
175
     1
 42
1.0
 92
        0
 66
     7
 43
1.0
 76
     1
 77
     6
 78
     2
 67
     7
 79
     5
170
     0
171
     0
290
     0
174
     0
 93
       13
 44
0.0
173
     0
291
     1
 45
0.0
1001
ACAD
1000
AcDbSavedByObjectVersion
1070
     0
  0
VISUALSTYLE
  5
2E
102
{ACAD_REACTORS
330
2A
102
}
102
{ACAD_XDICTIONARY
360
282
102
}
330
2A
100
AcDbVisualStyle
  2
GouraudWithEdges
 70
     3
 71
     2
 72
     2
 73
     1
 90
        2
 40
0.6
 41
30.0
 62
     5
 63
     7
 74
     1
 91
        0
 64
     7
 65
   257
 75
     1
175
     1
 42
1.0
 92
        0
 66
   257
 43
1.0
 76
     1
 77
     6
 78
     2
 67
     7
 79
     5
170
     0
171
     0
290
     0
174
     0
 93
       13
 44
0.0
173
     0
291
     1
 45
0.0
1001
ACAD
1000
AcDbSavedByObjectVersion
1070
     0
  0
VISUALSTYLE
  5
31
102
{ACAD_REACTORS
330
2A
102
}
102
{ACAD_XDICTIONARY
360
288
102
}
330
2A
100
AcDbVisualStyle
  2
Hidden
 70
     6
 71
     1
 72
     2
 73
     2
 90
        0
 40
0.6
 41
30.0
 62
     5
 63
     7
 74
     2
 91
        2
 64
     7
 65
   257
 75
     2
175
     1
 42
40.0
 92
        0
 66
   257
 43
1.0
 76
     1
 77
     6
 78
     2
 67
     7
 79
     3
170
     0
171
     0
290
     0
174
     0
 93
        1
 44
0.0
173
     0
291
     0
 45
0.0
1001
ACAD
1000
AcDbSavedByObjectVersion
1070
     0
  0
VISUALSTYLE
  5
3B
102
{ACAD_REACTORS
330
2A
102
}
102
{ACAD_XDICTIONARY
360
29C
102
}
330
2A
100
AcDbVisualStyle
  2
JitterOff
 70
    20
 71
     2
 72
     2
 73
     0
 90
        0
 40
0.6
 41
30.0
 62
     5
 63
     7
 74
     1
 91
        4
 64
     7
 65
   257
 75
     1
175
     1
 42
1.0
 92
       10
 66
     7
 43
1.0
 76
     1
 77
     6
 78
     2
 67
     7
 79
     5
170
     0
171
     0
290
     0
174
     0
 93
        1
 44
0.0
173
     0
291
     1
 45
0.0
1001
ACAD
1000
AcDbSavedByObjectVersion
1070
     0
  0
VISUALSTYLE
  5
38
102
{ACAD_REACTORS
330
2A
102
}
102
{ACAD_XDICTIONARY
360
296
102
}
330
2A
100
AcDbVisualStyle
  2
Linepattern
 70
    14
 71
     2
 72
     2
 73
     0
 90
        0
 40
0.6
 41
30.0
 62
     5
 63
     7
 74
     1
 91
        4
 64
     7
 65
   257
 75
     7
175
     7
 42
1.0
 92
        8
 66
     7
 43
1.0
 76
     1
 77
     6
 78
     2
 67
     7
 79
     5
170
     0
171
     0
290
     0
174
     0
 93
        1
 44
0.0
173
     0
291
     1
 45
0.0
1001
ACAD
1000
AcDbSavedByObjectVersion
1070
     0
  0
VISUALSTYLE
  5
3C
102
{ACAD_REACTORS
330
2A
102
}
102
{ACAD_XDICTIONARY
360
29E
102
}
330
2A
100
AcDbVisualStyle
  2
OverhangOff
 70
    21
 71
     2
 72
     2
 73
     0
 90
        0
 40
0.6
 41
30.0
 62
     5
 63
     7
 74
     1
 91
        4
 64
     7
 65
   257
 75
     1
175
     1
 42
1.0
 92
        9
 66
     7
 43
1.0
 76
     1
 77
     6
 78
     2
 67
     7
 79
     5
170
     0
171
     0
290
     0
174
     0
 93
        1
 44
0.0
173
     0
291
     1
 45
0.0
1001
ACAD
1000
AcDbSavedByObjectVersion
1070
     0
  0
VISUALSTYLE
  5
33
102
{ACAD_REACTORS
330
2A
102
}
102
{ACAD_XDICTIONARY
360
28C
102
}
330
2A
100
AcDbVisualStyle
  2
Realistic
 70
     8
 71
     2
 72
     3
 73
     0
 90
        2
 40
0.6
 41
30.0
 62
     5
 63
     7
 74
     0
 91
        0
 64
     7
 65
   257
 75
     1
175
     1
 42
1.0
 92
        8
 66
   257
 43
1.0
 76
     1
 77
     6
 78
     2
 67
     7
 79
     3
170
     0
171
     0
290
     0
174
     0
 93
       13
 44
0.0
173
     0
291
     0
 45
0.0
1001
ACAD
1000
AcDbSavedByObjectVersion
1070
     0
  0
VISUALSTYLE
  5
42
102
{ACAD_REACTORS
330
2A
102
}
102
{ACAD_XDICTIONARY
360
2AA
102
}
330
2A
100
AcDbVisualStyle
  2
Shaded
 70
    27
 71
     2
 72
     2
 73
     1
 90
        2
 40
0.6
 41
30.0
 62
     5
 63
     7
 74
     0
 91
        4
 64
     7
 65
   257
 75
     1
175
     1
 42
1.0
 92
        8
 66
   257
 43
1.0
 76
     1
 77
     6
 78
     2
 67
     8
 79
     3
170
     0
171
     0
290
     0
174
     0
 93
        5
 44
0.0
173
     0
291
     0
 45
0.0
1001
ACAD
1000
AcDbSavedByObjectVersion
1070
     0
  0
VISUALSTYLE
  5
41
102
{ACAD_REACTORS
330
2A
102
}
102
{ACAD_XDICTIONARY
360
2A8
102
}
330
2A
100
AcDbVisualStyle
  2
Shaded with edges
 70
    26
 71
     2
 72
     2
 73
     1
 90
        2
 40
0.6
 41
30.0
 62
     5
 63
     7
 74
     1
 91
       10
 64
     7
 65
   257
 75
     2
175
     1
 42
1.0
 92
        8
 66
   257
 43
1.0
 76
     1
 77
     6
 78
     2
 67
     7
 79
     3
170
     0
171
     0
290
     0
174
     0
 93
        5
 44
0.0
173
     0
291
     0
 45
0.0
1001
ACAD
1000
AcDbSavedByObjectVersion
1070
     0
  0
VISUALSTYLE
  5
3E
102
{ACAD_REACTORS
330
2A
102
}
102
{ACAD_XDICTIONARY
360
2A2
102
}
330
2A
100
AcDbVisualStyle
  2
Shades of Gray
 70
    23
 71
     2
 72
     2
 73
     3
 90
        0
 40
0.6
 41
30.0
 62
     5
 63
     7
 74
     2
 91
        2
 64
     7
 65
     7
 75
     1
175
     1
 42
40.0
 92
        8
 66
     7
 43
1.0
 76
     1
 77
     6
 78
     2
 67
     7
 79
     3
170
     0
171
     0
290
     0
174
     0
 93
        1
 44
0.0
173
     0
291
     0
 45
0.0
1001
ACAD
1000
AcDbSavedByObjectVersion
1070
     0
  0
VISUALSTYLE
  5
3F
102
{ACAD_REACTORS
330
2A
102
}
102
{ACAD_XDICTIONARY
360
2A4
102
}
330
2A
100
AcDbVisualStyle
  2
Sketchy
 70
    24
 71
     1
 72
     2
 73
     2
 90
        0
 40
0.6
 41
30.0
 62
     5
 63
     7
 74
     2
 91
        2
 64
     7
 65
     7
 75
     1
175
     1
 42
40.0
 92
       11
 66
     7
 43
1.0
 76
     1
 77
     6
 78
     2
 67
     7
 79
     6
170
     0
171
     0
290
     0
174
     0
 93
        1
 44
0.0
173
     0
291
     0
 45
0.0
1001
ACAD
1000
AcDbSavedByObjectVersion
1070
     0
  0
VISUALSTYLE
  5
37
102
{ACAD_REACTORS
330
2A
102
}
102
{ACAD_XDICTIONARY
360
294
102
}
330
2A
100
AcDbVisualStyle
  2
Thicken
 70
    13
 71
     2
 72
     2
 73
     0
 90
        0
 40
0.6
 41
30.0
 62
     5
 63
     7
 74
     1
 91
        4
 64
     7
 65
   257
 75
     1
175
     1
 42
1.0
 92
       12
 66
     7
 43
1.0
 76
     1
 77
     6
 78
     2
 67
     7
 79
     5
170
     0
171
     0
290
     0
174
     0
 93
        1
 44
0.0
173
     0
291
     1
 45
0.0
1001
ACAD
1000
AcDbSavedByObjectVersion
1070
     0
  0
VISUALSTYLE
  5
30
102
{ACAD_REACTORS
330
2A
102
}
102
{ACAD_XDICTIONARY
360
286
102
}
330
2A
100
AcDbVisualStyle
  2
Wireframe
 70
     5
 71
     0
 72
     2
 73
     0
 90
        0
 40
0.6
 41
30.0
 62
     5
 63
     7
 74
     1
 91
        4
 64
     7
 65
   257
 75
     1
175
     1
 42
1.0
 92
        0
 66
   257
 43
1.0
 76
     1
 77
     6
 78
     2
 67
     7
 79
     3
170
     0
171
     0
290
     0
174
     0
 93
        1
 44
0.0
173
     0
291
     0
 45
0.0
1001
ACAD
1000
AcDbSavedByObjectVersion
1070
     0
  0
VISUALSTYLE
  5
40
102
{ACAD_REACTORS
330
2A
102
}
102
{ACAD_XDICTIONARY
360
2A6
102
}
330
2A
100
AcDbVisualStyle
  2
X-Ray
 70
    25
 71
     2
 72
     2
 73
     1
 90
        1
 40
0.5
 41
30.0
 62
     5
 63
     7
 74
     1
 91
        0
 64
     7
 65
   257
 75
     1
175
     1
 42
1.0
 92
        8
 66
     7
 43
1.0
 76
     1
 77
     6
 78
     2
 67
     7
 79
     3
170
     0
171
     0
290
     0
174
     0
 93
       13
 44
0.0
173
     0
291
     0
 45
0.0
1001
ACAD
1000
AcDbSavedByObjectVersion
1070
     0
  0
DICTIONARYVAR
  5
27A
102
{ACAD_REACTORS
330
26F
102
}
330
26F
100
DictionaryVariables
280
     0
  1
1:1
  0
DICTIONARYVAR
  5
274
102
{ACAD_REACTORS
330
26F
102
}
330
26F
100
DictionaryVariables
280
     0
  1
2
  0
DICTIONARYVAR
  5
275
102
{ACAD_REACTORS
330
26F
102
}
330
26F
100
DictionaryVariables
280
     0
  1
1
  0
DICTIONARYVAR
  5
27B
102
{ACAD_REACTORS
330
26F
102
}
330
26F
100
DictionaryVariables
280
     0
  1
1
  0
DICTIONARY
  5
2AE
330
45
100
AcDbDictionary
280
     1
281
     1
  3
ACAD_XREC_ROUNDTRIP
360
2AF
  0
DICTIONARY
  5
2AC
330
44
100
AcDbDictionary
280
     1
281
     1
  3
ACAD_XREC_ROUNDTRIP
360
2AD
  0
DICTIONARY
  5
2B0
330
46
100
AcDbDictionary
280
     1
281
     1
  3
ACAD_XREC_ROUNDTRIP
360
2B1
  0
DICTIONARY
  5
284
330
2F
100
AcDbDictionary
280
     1
281
     1
  3
ACAD_XREC_ROUNDTRIP
360
285
  0
DICTIONARY
  5
28A
330
32
100
AcDbDictionary
280
     1
281
     1
  3
ACAD_XREC_ROUNDTRIP
360
28B
  0
DICTIONARY
  5
292
330
36
100
AcDbDictionary
280
     1
281
     1
  3
ACAD_XREC_ROUNDTRIP
360
293
  0
DICTIONARY
  5
29A
330
3A
100
AcDbDictionary
280
     1
281
     1
  3
ACAD_XREC_ROUNDTRIP
360
29B
  0
DICTIONARY
  5
28E
330
34
100
AcDbDictionary
280
     1
281
     1
  3
ACAD_XREC_ROUNDTRIP
360
28F
  0
DICTIONARY
  5
290
330
35
100
AcDbDictionary
280
     1
281
     1
  3
ACAD_XREC_ROUNDTRIP
360
291
  0
DICTIONARY
  5
2A0
330
3D
100
AcDbDictionary
280
     1
281
     1
  3
ACAD_XREC_ROUNDTRIP
360
2A1
  0
DICTIONARY
  5
298
330
39
100
AcDbDictionary
280
     1
281
     1
  3
ACAD_XREC_ROUNDTRIP
360
299
  0
DICTIONARY
  5
27C
330
2B
100
AcDbDictionary
280
     1
281
     1
  3
ACAD_XREC_ROUNDTRIP
360
27D
  0
DICTIONARY
  5
27E
330
2C
100
AcDbDictionary
280
     1
281
     1
  3
ACAD_XREC_ROUNDTRIP
360
27F
  0
DICTIONARY
  5
280
330
2D
100
AcDbDictionary
280
     1
281
     1
  3
ACAD_XREC_ROUNDTRIP
360
281
  0
DICTIONARY
  5
282
330
2E
100
AcDbDictionary
280
     1
281
     1
  3
ACAD_XREC_ROUNDTRIP
360
283
  0
DICTIONARY
  5
288
330
31
100
AcDbDictionary
280
     1
281
     1
  3
ACAD_XREC_ROUNDTRIP
360
289
  0
DICTIONARY
  5
29C
330
3B
100
AcDbDictionary
280
     1
281
     1
  3
ACAD_XREC_ROUNDTRIP
360
29D
  0
DICTIONARY
  5
296
330
38
100
AcDbDictionary
280
     1
281
     1
  3
ACAD_XREC_ROUNDTRIP
360
297
  0
DICTIONARY
  5
29E
330
3C
100
AcDbDictionary
280
     1
281
     1
  3
ACAD_XREC_ROUNDTRIP
360
29F
  0
DICTIONARY
  5
28C
330
33
100
AcDbDictionary
280
     1
281
     1
  3
ACAD_XREC_ROUNDTRIP
360
28D
  0
DICTIONARY
  5
2AA
330
42
100
AcDbDictionary
280
     1
281
     1
  3
ACAD_XREC_ROUNDTRIP
360
2AB
  0
DICTIONARY
  5
2A8
330
41
100
AcDbDictionary
280
     1
281
     1
  3
ACAD_XREC_ROUNDTRIP
360
2A9
  0
DICTIONARY
  5
2A2
330
3E
100
AcDbDictionary
280
     1
281
     1
  3
ACAD_XREC_ROUNDTRIP
360
2A3
  0
DICTIONARY
  5
2A4
330
3F
100
AcDbDictionary
280
     1
281
     1
  3
ACAD_XREC_ROUNDTRIP
360
2A5
  0
DICTIONARY
  5
294
330
37
100
AcDbDictionary
280
     1
281
     1
  3
ACAD_XREC_ROUNDTRIP
360
295
  0
DICTIONARY
  5
286
330
30
100
AcDbDictionary
280
     1
281
     1
  3
ACAD_XREC_ROUNDTRIP
360
287
  0
DICTIONARY
  5
2A6
330
40
100
AcDbDictionary
280
     1
281
     1
  3
ACAD_XREC_ROUNDTRIP
360
2A7
  0
XRECORD
  5
2AF
102
{ACAD_REACTORS
330
2AE
102
}
330
2AE
100
AcDbXrecord
280
     1
102
MATERIAL
148
0.0
149
0.0
149
0.0
 93
        0
 94
      127
282
     0
 72
     1
 77
     1
171
     1
175
     1
179
     1
273
     0
  0
XRECORD
  5
2AD
102
{ACAD_REACTORS
330
2AC
102
}
330
2AC
100
AcDbXrecord
280
     1
102
MATERIAL
148
0.0
149
0.0
149
0.0
 93
        0
 94
      127
282
     0
 72
     1
 77
     1
171
     1
175
     1
179
     1
273
     0
  0
XRECORD
  5
2B1
102
{ACAD_REACTORS
330
2B0
102
}
330
2B0
100
AcDbXrecord
280
     1
102
MATERIAL
148
0.0
149
0.0
149
0.0
 93
        0
 94
      127
282
     0
 72
     1
 77
     1
171
     1
175
     1
179
     1
273
     0
  0
XRECORD
  5
285
102
{ACAD_REACTORS
330
284
102
}
330
284
100
AcDbXrecord
280
     1
102
RTVSPropertyOp0
 70
     1
102
RTVSPropertyOp1
 70
     1
102
RTVSPropertyOp2
 70
     1
102
RTVSPropertyOp3
 70
     1
102
RTVSPropertyOp4
 70
     1
102
RTVSPropertyOp5
 70
     1
102
RTVSPropertyOp6
 70
     1
102
RTVSPropertyOp7
 70
     1
102
RTVSPropertyOp8
 70
     1
102
RTVSPropertyOp9
 70
     1
102
RTVSPropertyOp10
 70
     1
102
RTVSPropertyOp11
 70
     1
102
RTVSPropertyOp12
 70
     1
102
RTVSPropertyOp13
 70
     1
102
RTVSPropertyOp14
 70
     1
102
RTVSPropertyOp15
 70
     1
102
RTVSPropertyOp16
 70
     1
102
RTVSPropertyOp17
 70
     1
102
RTVSPropertyOp18
 70
     1
102
RTVSPropertyOp19
 70
     1
102
RTVSPropertyOp20
 70
     1
102
RTVSPropertyOp21
 70
     1
102
RTVSPropertyOp22
 70
     1
102
RTVSPropertyOp23
 70
     1
102
RTVSPropertyOp24
 70
     1
102
RTVSPropertyOp25
 70
     1
102
RTVSPropertyOp26
 70
     1
102
RTVSPropertyOp27
 70
     1
102
RTVSPropertyOp28
 70
     1
102
RTVSPropertyOp29
 70
     1
102
RTVSPropertyOp30
 70
     1
102
RTVSPropertyOp31
 70
     1
102
RTVSPropertyOp32
 70
     1
102
RTVSPropertyOp33
 70
     1
102
RTVSPropertyOp34
 70
     1
102
RTVSPropertyOp35
 70
     1
102
RTVSPropertyOp36
 70
     1
102
RTVSPropertyOp37
 70
     1
102
RTVSPropertyOp38
 70
     1
102
RTVSPropertyOp39
 70
     1
102
RTVSPropertyOp40
 70
     1
102
RTVSPropertyOp41
 70
     1
102
RTVSPropertyOp42
 70
     1
102
RTVSPropertyOp43
 70
     1
102
RTVSPropertyOp44
 70
     1
102
RTVSPropertyOp45
 70
     1
102
RTVSPropertyOp46
 70
     1
102
RTVSPropertyOp47
 70
     1
102
RTVSPropertyOp48
 70
     1
102
RTVSPropertyOp49
 70
     1
102
RTVSPropertyOp50
 70
     1
102
RTVSPropertyOp51
 70
     0
102
RTVSPropertyOp52
 70
     0
102
RTVSPropertyOp53
 70
     1
102
RTVSPropertyOp54
 70
     1
102
RTVSPropertyOp55
 70
     1
102
RTVSPropertyOp56
 70
     1
102
RTVSPropertyOp57
 70
     1
102
RTVSPost2010Prop28
280
     1
102
RTVSPost2010PropOp28
 70
     1
102
RTVSPost2010Prop29
280
     1
102
RTVSPost2010PropOp29
 70
     1
102
RTVSPost2010Prop30
280
     0
102
RTVSPost2010PropOp30
 70
     1
102
RTVSPost2010Prop31
280
     0
102
RTVSPost2010PropOp31
 70
     1
102
RTVSPost2010Prop32
280
     0
102
RTVSPost2010PropOp32
 70
     1
102
RTVSPost2010Prop33
280
     0
102
RTVSPost2010PropOp33
 70
     1
102
RTVSPost2010Prop34
280
     0
102
RTVSPost2010PropOp34
 70
     1
102
RTVSPost2010Prop35
280
     0
102
RTVSPost2010PropOp35
 70
     1
102
RTVSPost2010Prop36
280
     0
102
RTVSPost2010PropOp36
 70
     1
102
RTVSPost2010Prop37
 90
       50
102
RTVSPost2010PropOp37
 70
     1
102
RTVSPost2010Prop38
140
0.0
102
RTVSPost2010PropOp38
 70
     1
102
RTVSPost2010Prop39
140
1.0
102
RTVSPost2010PropOp39
 70
     1
102
RTVSPost2010Prop40
 90
        0
102
RTVSPost2010PropOp40
 70
     1
102
RTVSPost2010Prop41ColorIndex
 90
       18
102
RTVSPost2010Prop41ColorRGB
 90
        0
102
RTVSPost2010PropOp41
 70
     1
102
RTVSPost2010Prop42
 90
       50
102
RTVSPost2010PropOp42
 70
     1
102
RTVSPost2010Prop43
 90
        3
102
RTVSPost2010PropOp43
 70
     1
102
RTVSPost2010Prop44ColorIndex
 90
        5
102
RTVSPost2010Prop44ColorRGB
 90
      255
102
RTVSPost2010PropOp44
 70
     1
102
RTVSPost2010Prop45
280
     0
102
RTVSPost2010PropOp45
 70
     1
102
RTVSPost2010Prop46
 90
       50
102
RTVSPost2010PropOp46
 70
     1
102
RTVSPost2010Prop47
 90
       50
102
RTVSPost2010PropOp47
 70
     1
102
RTVSPost2010Prop48
 90
       50
102
RTVSPost2010PropOp48
 70
     1
102
RTVSPost2010Prop49
280
     0
102
RTVSPost2010PropOp49
 70
     1
102
RTVSPost2010Prop50
 90
       50
102
RTVSPost2010PropOp50
 70
     1
102
RTVSPost2010Prop51ColorIndex
 90
      256
102
RTVSPost2010Prop51ColorRGB
 90
-16777216
102
RTVSPost2010PropOp51
 70
     0
102
RTVSPost2010Prop52
140
1.0
102
RTVSPost2010PropOp52
 70
     0
102
RTVSPost2010Prop53
 90
        2
102
RTVSPost2010PropOp53
 70
     1
102
RTVSPost2010Prop54
  1
strokes_ogs.tif
102
RTVSPost2010PropOp54
 70
     1
102
RTVSPost2010Prop55
280
     0
102
RTVSPost2010PropOp55
 70
     1
102
RTVSPost2010Prop56
140
1.0
102
RTVSPost2010PropOp56
 70
     1
102
RTVSPost2010Prop57
140
1.0
102
RTVSPost2010PropOp57
 70
     1
  0
XRECORD
  5
28B
102
{ACAD_REACTORS
330
28A
102
}
330
28A
100
AcDbXrecord
280
     1
102
RTVSPropertyOp0
 70
     1
102
RTVSPropertyOp1
 70
     1
102
RTVSPropertyOp2
 70
     1
102
RTVSPropertyOp3
 70
     1
102
RTVSPropertyOp4
 70
     1
102
RTVSPropertyOp5
 70
     1
102
RTVSPropertyOp6
 70
     1
102
RTVSPropertyOp7
 70
     1
102
RTVSPropertyOp8
 70
     1
102
RTVSPropertyOp9
 70
     1
102
RTVSPropertyOp10
 70
     1
102
RTVSPropertyOp11
 70
     1
102
RTVSPropertyOp12
 70
     1
102
RTVSPropertyOp13
 70
     1
102
RTVSPropertyOp14
 70
     1
102
RTVSPropertyOp15
 70
     1
102
RTVSPropertyOp16
 70
     1
102
RTVSPropertyOp17
 70
     1
102
RTVSPropertyOp18
 70
     1
102
RTVSPropertyOp19
 70
     1
102
RTVSPropertyOp20
 70
     1
102
RTVSPropertyOp21
 70
     1
102
RTVSPropertyOp22
 70
     1
102
RTVSPropertyOp23
 70
     1
102
RTVSPropertyOp24
 70
     1
102
RTVSPropertyOp25
 70
     1
102
RTVSPropertyOp26
 70
     1
102
RTVSPropertyOp27
 70
     1
102
RTVSPropertyOp28
 70
     1
102
RTVSPropertyOp29
 70
     1
102
RTVSPropertyOp30
 70
     1
102
RTVSPropertyOp31
 70
     1
102
RTVSPropertyOp32
 70
     1
102
RTVSPropertyOp33
 70
     1
102
RTVSPropertyOp34
 70
     1
102
RTVSPropertyOp35
 70
     1
102
RTVSPropertyOp36
 70
     1
102
RTVSPropertyOp37
 70
     1
102
RTVSPropertyOp38
 70
     1
102
RTVSPropertyOp39
 70
     1
102
RTVSPropertyOp40
 70
     1
102
RTVSPropertyOp41
 70
     1
102
RTVSPropertyOp42
 70
     1
102
RTVSPropertyOp43
 70
     1
102
RTVSPropertyOp44
 70
     1
102
RTVSPropertyOp45
 70
     1
102
RTVSPropertyOp46
 70
     1
102
RTVSPropertyOp47
 70
     1
102
RTVSPropertyOp48
 70
     1
102
RTVSPropertyOp49
 70
     1
102
RTVSPropertyOp50
 70
     1
102
RTVSPropertyOp51
 70
     0
102
RTVSPropertyOp52
 70
     0
102
RTVSPropertyOp53
 70
     1
102
RTVSPropertyOp54
 70
     1
102
RTVSPropertyOp55
 70
     1
102
RTVSPropertyOp56
 70
     1
102
RTVSPropertyOp57
 70
     1
102
RTVSPost2010Prop28
280
     0
102
RTVSPost2010PropOp28
 70
     1
102
RTVSPost2010Prop29
280
     1
102
RTVSPost2010PropOp29
 70
     1
102
RTVSPost2010Prop30
280
     1
102
RTVSPost2010PropOp30
 70
     1
102
RTVSPost2010Prop31
280
     0
102
RTVSPost2010PropOp31
 70
     1
102
RTVSPost2010Prop32
280
     0
102
RTVSPost2010PropOp32
 70
     1
102
RTVSPost2010Prop33
280
     0
102
RTVSPost2010PropOp33
 70
     1
102
RTVSPost2010Prop34
280
     0
102
RTVSPost2010PropOp34
 70
     1
102
RTVSPost2010Prop35
280
     0
102
RTVSPost2010PropOp35
 70
     1
102
RTVSPost2010Prop36
280
     0
102
RTVSPost2010PropOp36
 70
     1
102
RTVSPost2010Prop37
 90
       50
102
RTVSPost2010PropOp37
 70
     1
102
RTVSPost2010Prop38
140
0.0
102
RTVSPost2010PropOp38
 70
     1
102
RTVSPost2010Prop39
140
1.0
102
RTVSPost2010PropOp39
 70
     1
102
RTVSPost2010Prop40
 90
        0
102
RTVSPost2010PropOp40
 70
     1
102
RTVSPost2010Prop41ColorIndex
 90
       18
102
RTVSPost2010Prop41ColorRGB
 90
        0
102
RTVSPost2010PropOp41
 70
     1
102
RTVSPost2010Prop42
 90
       50
102
RTVSPost2010PropOp42
 70
     1
102
RTVSPost2010Prop43
 90
        3
102
RTVSPost2010PropOp43
 70
     1
102
RTVSPost2010Prop44ColorIndex
 90
        5
102
RTVSPost2010Prop44ColorRGB
 90
      255
102
RTVSPost2010PropOp44
 70
     1
102
RTVSPost2010Prop45
280
     0
102
RTVSPost2010PropOp45
 70
     1
102
RTVSPost2010Prop46
 90
       50
102
RTVSPost2010PropOp46
 70
     1
102
RTVSPost2010Prop47
 90
       50
102
RTVSPost2010PropOp47
 70
     1
102
RTVSPost2010Prop48
 90
       50
102
RTVSPost2010PropOp48
 70
     1
102
RTVSPost2010Prop49
280
     0
102
RTVSPost2010PropOp49
 70
     1
102
RTVSPost2010Prop50
 90
       50
102
RTVSPost2010PropOp50
 70
     1
102
RTVSPost2010Prop51ColorIndex
 90
      256
102
RTVSPost2010Prop51ColorRGB
 90
-16777216
102
RTVSPost2010PropOp51
 70
     0
102
RTVSPost2010Prop52
140
1.0
102
RTVSPost2010PropOp52
 70
     0
102
RTVSPost2010Prop53
 90
        2
102
RTVSPost2010PropOp53
 70
     1
102
RTVSPost2010Prop54
  1
strokes_ogs.tif
102
RTVSPost2010PropOp54
 70
     1
102
RTVSPost2010Prop55
280
     0
102
RTVSPost2010PropOp55
 70
     1
102
RTVSPost2010Prop56
140
1.0
102
RTVSPost2010PropOp56
 70
     1
102
RTVSPost2010Prop57
140
1.0
102
RTVSPost2010PropOp57
 70
     1
  0
XRECORD
  5
293
102
{ACAD_REACTORS
330
292
102
}
330
292
100
AcDbXrecord
280
     1
102
RTVSPropertyOp0
 70
     1
102
RTVSPropertyOp1
 70
     1
102
RTVSPropertyOp2
 70
     1
102
RTVSPropertyOp3
 70
     1
102
RTVSPropertyOp4
 70
     1
102
RTVSPropertyOp5
 70
     1
102
RTVSPropertyOp6
 70
     1
102
RTVSPropertyOp7
 70
     1
102
RTVSPropertyOp8
 70
     1
102
RTVSPropertyOp9
 70
     1
102
RTVSPropertyOp10
 70
     1
102
RTVSPropertyOp11
 70
     1
102
RTVSPropertyOp12
 70
     1
102
RTVSPropertyOp13
 70
     1
102
RTVSPropertyOp14
 70
     1
102
RTVSPropertyOp15
 70
     1
102
RTVSPropertyOp16
 70
     1
102
RTVSPropertyOp17
 70
     1
102
RTVSPropertyOp18
 70
     1
102
RTVSPropertyOp19
 70
     1
102
RTVSPropertyOp20
 70
     1
102
RTVSPropertyOp21
 70
     1
102
RTVSPropertyOp22
 70
     1
102
RTVSPropertyOp23
 70
     1
102
RTVSPropertyOp24
 70
     1
102
RTVSPropertyOp25
 70
     1
102
RTVSPropertyOp26
 70
     1
102
RTVSPropertyOp27
 70
     1
102
RTVSPropertyOp28
 70
     1
102
RTVSPropertyOp29
 70
     1
102
RTVSPropertyOp30
 70
     1
102
RTVSPropertyOp31
 70
     1
102
RTVSPropertyOp32
 70
     1
102
RTVSPropertyOp33
 70
     1
102
RTVSPropertyOp34
 70
     1
102
RTVSPropertyOp35
 70
     1
102
RTVSPropertyOp36
 70
     1
102
RTVSPropertyOp37
 70
     1
102
RTVSPropertyOp38
 70
     1
102
RTVSPropertyOp39
 70
     1
102
RTVSPropertyOp40
 70
     1
102
RTVSPropertyOp41
 70
     1
102
RTVSPropertyOp42
 70
     1
102
RTVSPropertyOp43
 70
     1
102
RTVSPropertyOp44
 70
     1
102
RTVSPropertyOp45
 70
     1
102
RTVSPropertyOp46
 70
     1
102
RTVSPropertyOp47
 70
     1
102
RTVSPropertyOp48
 70
     1
102
RTVSPropertyOp49
 70
     1
102
RTVSPropertyOp50
 70
     1
102
RTVSPropertyOp51
 70
     0
102
RTVSPropertyOp52
 70
     0
102
RTVSPropertyOp53
 70
     1
102
RTVSPropertyOp54
 70
     1
102
RTVSPropertyOp55
 70
     1
102
RTVSPropertyOp56
 70
     1
102
RTVSPropertyOp57
 70
     1
102
RTVSPost2010Prop28
280
     0
102
RTVSPost2010PropOp28
 70
     1
102
RTVSPost2010Prop29
280
     1
102
RTVSPost2010PropOp29
 70
     1
102
RTVSPost2010Prop30
280
     1
102
RTVSPost2010PropOp30
 70
     1
102
RTVSPost2010Prop31
280
     0
102
RTVSPost2010PropOp31
 70
     1
102
RTVSPost2010Prop32
280
     0
102
RTVSPost2010PropOp32
 70
     1
102
RTVSPost2010Prop33
280
     0
102
RTVSPost2010PropOp33
 70
     1
102
RTVSPost2010Prop34
280
     0
102
RTVSPost2010PropOp34
 70
     1
102
RTVSPost2010Prop35
280
     0
102
RTVSPost2010PropOp35
 70
     1
102
RTVSPost2010Prop36
280
     0
102
RTVSPost2010PropOp36
 70
     1
102
RTVSPost2010Prop37
 90
       50
102
RTVSPost2010PropOp37
 70
     1
102
RTVSPost2010Prop38
140
0.0
102
RTVSPost2010PropOp38
 70
     1
102
RTVSPost2010Prop39
140
1.0
102
RTVSPost2010PropOp39
 70
     1
102
RTVSPost2010Prop40
 90
        0
102
RTVSPost2010PropOp40
 70
     1
102
RTVSPost2010Prop41ColorIndex
 90
       18
102
RTVSPost2010Prop41ColorRGB
 90
        0
102
RTVSPost2010PropOp41
 70
     1
102
RTVSPost2010Prop42
 90
       50
102
RTVSPost2010PropOp42
 70
     1
102
RTVSPost2010Prop43
 90
        3
102
RTVSPost2010PropOp43
 70
     1
102
RTVSPost2010Prop44ColorIndex
 90
        5
102
RTVSPost2010Prop44ColorRGB
 90
      255
102
RTVSPost2010PropOp44
 70
     1
102
RTVSPost2010Prop45
280
     0
102
RTVSPost2010PropOp45
 70
     1
102
RTVSPost2010Prop46
 90
       50
102
RTVSPost2010PropOp46
 70
     1
102
RTVSPost2010Prop47
 90
       50
102
RTVSPost2010PropOp47
 70
     1
102
RTVSPost2010Prop48
 90
       50
102
RTVSPost2010PropOp48
 70
     1
102
RTVSPost2010Prop49
280
     0
102
RTVSPost2010PropOp49
 70
     1
102
RTVSPost2010Prop50
 90
       50
102
RTVSPost2010PropOp50
 70
     1
102
RTVSPost2010Prop51ColorIndex
 90
      256
102
RTVSPost2010Prop51ColorRGB
 90
-16777216
102
RTVSPost2010PropOp51
 70
     0
102
RTVSPost2010Prop52
140
1.0
102
RTVSPost2010PropOp52
 70
     0
102
RTVSPost2010Prop53
 90
        2
102
RTVSPost2010PropOp53
 70
     1
102
RTVSPost2010Prop54
  1
strokes_ogs.tif
102
RTVSPost2010PropOp54
 70
     1
102
RTVSPost2010Prop55
280
     0
102
RTVSPost2010PropOp55
 70
     1
102
RTVSPost2010Prop56
140
1.0
102
RTVSPost2010PropOp56
 70
     1
102
RTVSPost2010Prop57
140
1.0
102
RTVSPost2010PropOp57
 70
     1
  0
XRECORD
  5
29B
102
{ACAD_REACTORS
330
29A
102
}
330
29A
100
AcDbXrecord
280
     1
102
RTVSPropertyOp0
 70
     1
102
RTVSPropertyOp1
 70
     1
102
RTVSPropertyOp2
 70
     1
102
RTVSPropertyOp3
 70
     1
102
RTVSPropertyOp4
 70
     1
102
RTVSPropertyOp5
 70
     1
102
RTVSPropertyOp6
 70
     1
102
RTVSPropertyOp7
 70
     1
102
RTVSPropertyOp8
 70
     1
102
RTVSPropertyOp9
 70
     1
102
RTVSPropertyOp10
 70
     1
102
RTVSPropertyOp11
 70
     1
102
RTVSPropertyOp12
 70
     1
102
RTVSPropertyOp13
 70
     1
102
RTVSPropertyOp14
 70
     1
102
RTVSPropertyOp15
 70
     1
102
RTVSPropertyOp16
 70
     1
102
RTVSPropertyOp17
 70
     1
102
RTVSPropertyOp18
 70
     1
102
RTVSPropertyOp19
 70
     1
102
RTVSPropertyOp20
 70
     1
102
RTVSPropertyOp21
 70
     1
102
RTVSPropertyOp22
 70
     1
102
RTVSPropertyOp23
 70
     1
102
RTVSPropertyOp24
 70
     1
102
RTVSPropertyOp25
 70
     1
102
RTVSPropertyOp26
 70
     1
102
RTVSPropertyOp27
 70
     1
102
RTVSPropertyOp28
 70
     1
102
RTVSPropertyOp29
 70
     1
102
RTVSPropertyOp30
 70
     1
102
RTVSPropertyOp31
 70
     1
102
RTVSPropertyOp32
 70
     1
102
RTVSPropertyOp33
 70
     1
102
RTVSPropertyOp34
 70
     1
102
RTVSPropertyOp35
 70
     1
102
RTVSPropertyOp36
 70
     1
102
RTVSPropertyOp37
 70
     1
102
RTVSPropertyOp38
 70
     1
102
RTVSPropertyOp39
 70
     1
102
RTVSPropertyOp40
 70
     1
102
RTVSPropertyOp41
 70
     1
102
RTVSPropertyOp42
 70
     1
102
RTVSPropertyOp43
 70
     1
102
RTVSPropertyOp44
 70
     1
102
RTVSPropertyOp45
 70
     1
102
RTVSPropertyOp46
 70
     1
102
RTVSPropertyOp47
 70
     1
102
RTVSPropertyOp48
 70
     1
102
RTVSPropertyOp49
 70
     1
102
RTVSPropertyOp50
 70
     1
102
RTVSPropertyOp51
 70
     0
102
RTVSPropertyOp52
 70
     0
102
RTVSPropertyOp53
 70
     1
102
RTVSPropertyOp54
 70
     1
102
RTVSPropertyOp55
 70
     1
102
RTVSPropertyOp56
 70
     1
102
RTVSPropertyOp57
 70
     1
102
RTVSPost2010Prop28
280
     0
102
RTVSPost2010PropOp28
 70
     1
102
RTVSPost2010Prop29
280
     1
102
RTVSPost2010PropOp29
 70
     1
102
RTVSPost2010Prop30
280
     1
102
RTVSPost2010PropOp30
 70
     1
102
RTVSPost2010Prop31
280
     0
102
RTVSPost2010PropOp31
 70
     1
102
RTVSPost2010Prop32
280
     0
102
RTVSPost2010PropOp32
 70
     1
102
RTVSPost2010Prop33
280
     0
102
RTVSPost2010PropOp33
 70
     1
102
RTVSPost2010Prop34
280
     0
102
RTVSPost2010PropOp34
 70
     1
102
RTVSPost2010Prop35
280
     0
102
RTVSPost2010PropOp35
 70
     1
102
RTVSPost2010Prop36
280
     0
102
RTVSPost2010PropOp36
 70
     1
102
RTVSPost2010Prop37
 90
       50
102
RTVSPost2010PropOp37
 70
     1
102
RTVSPost2010Prop38
140
0.0
102
RTVSPost2010PropOp38
 70
     1
102
RTVSPost2010Prop39
140
1.0
102
RTVSPost2010PropOp39
 70
     1
102
RTVSPost2010Prop40
 90
        0
102
RTVSPost2010PropOp40
 70
     1
102
RTVSPost2010Prop41ColorIndex
 90
       18
102
RTVSPost2010Prop41ColorRGB
 90
        0
102
RTVSPost2010PropOp41
 70
     1
102
RTVSPost2010Prop42
 90
       50
102
RTVSPost2010PropOp42
 70
     1
102
RTVSPost2010Prop43
 90
        3
102
RTVSPost2010PropOp43
 70
     1
102
RTVSPost2010Prop44ColorIndex
 90
        5
102
RTVSPost2010Prop44ColorRGB
 90
      255
102
RTVSPost2010PropOp44
 70
     1
102
RTVSPost2010Prop45
280
     0
102
RTVSPost2010PropOp45
 70
     1
102
RTVSPost2010Prop46
 90
       50
102
RTVSPost2010PropOp46
 70
     1
102
RTVSPost2010Prop47
 90
       50
102
RTVSPost2010PropOp47
 70
     1
102
RTVSPost2010Prop48
 90
       50
102
RTVSPost2010PropOp48
 70
     1
102
RTVSPost2010Prop49
280
     0
102
RTVSPost2010PropOp49
 70
     1
102
RTVSPost2010Prop50
 90
       50
102
RTVSPost2010PropOp50
 70
     1
102
RTVSPost2010Prop51ColorIndex
 90
      256
102
RTVSPost2010Prop51ColorRGB
 90
-16777216
102
RTVSPost2010PropOp51
 70
     0
102
RTVSPost2010Prop52
140
1.0
102
RTVSPost2010PropOp52
 70
     0
102
RTVSPost2010Prop53
 90
        2
102
RTVSPost2010PropOp53
 70
     1
102
RTVSPost2010Prop54
  1
strokes_ogs.tif
102
RTVSPost2010PropOp54
 70
     1
102
RTVSPost2010Prop55
280
     0
102
RTVSPost2010PropOp55
 70
     1
102
RTVSPost2010Prop56
140
1.0
102
RTVSPost2010PropOp56
 70
     1
102
RTVSPost2010Prop57
140
1.0
102
RTVSPost2010PropOp57
 70
     1
  0
XRECORD
  5
28F
102
{ACAD_REACTORS
330
28E
102
}
330
28E
100
AcDbXrecord
280
     1
102
RTVSPropertyOp0
 70
     1
102
RTVSPropertyOp1
 70
     1
102
RTVSPropertyOp2
 70
     1
102
RTVSPropertyOp3
 70
     1
102
RTVSPropertyOp4
 70
     1
102
RTVSPropertyOp5
 70
     1
102
RTVSPropertyOp6
 70
     1
102
RTVSPropertyOp7
 70
     1
102
RTVSPropertyOp8
 70
     1
102
RTVSPropertyOp9
 70
     1
102
RTVSPropertyOp10
 70
     1
102
RTVSPropertyOp11
 70
     1
102
RTVSPropertyOp12
 70
     1
102
RTVSPropertyOp13
 70
     1
102
RTVSPropertyOp14
 70
     1
102
RTVSPropertyOp15
 70
     1
102
RTVSPropertyOp16
 70
     1
102
RTVSPropertyOp17
 70
     1
102
RTVSPropertyOp18
 70
     1
102
RTVSPropertyOp19
 70
     1
102
RTVSPropertyOp20
 70
     1
102
RTVSPropertyOp21
 70
     1
102
RTVSPropertyOp22
 70
     1
102
RTVSPropertyOp23
 70
     1
102
RTVSPropertyOp24
 70
     1
102
RTVSPropertyOp25
 70
     1
102
RTVSPropertyOp26
 70
     1
102
RTVSPropertyOp27
 70
     1
102
RTVSPropertyOp28
 70
     1
102
RTVSPropertyOp29
 70
     1
102
RTVSPropertyOp30
 70
     1
102
RTVSPropertyOp31
 70
     1
102
RTVSPropertyOp32
 70
     1
102
RTVSPropertyOp33
 70
     1
102
RTVSPropertyOp34
 70
     1
102
RTVSPropertyOp35
 70
     1
102
RTVSPropertyOp36
 70
     1
102
RTVSPropertyOp37
 70
     1
102
RTVSPropertyOp38
 70
     1
102
RTVSPropertyOp39
 70
     1
102
RTVSPropertyOp40
 70
     1
102
RTVSPropertyOp41
 70
     1
102
RTVSPropertyOp42
 70
     1
102
RTVSPropertyOp43
 70
     1
102
RTVSPropertyOp44
 70
     1
102
RTVSPropertyOp45
 70
     1
102
RTVSPropertyOp46
 70
     1
102
RTVSPropertyOp47
 70
     1
102
RTVSPropertyOp48
 70
     1
102
RTVSPropertyOp49
 70
     1
102
RTVSPropertyOp50
 70
     1
102
RTVSPropertyOp51
 70
     0
102
RTVSPropertyOp52
 70
     0
102
RTVSPropertyOp53
 70
     1
102
RTVSPropertyOp54
 70
     1
102
RTVSPropertyOp55
 70
     1
102
RTVSPropertyOp56
 70
     1
102
RTVSPropertyOp57
 70
     1
102
RTVSPost2010Prop28
280
     0
102
RTVSPost2010PropOp28
 70
     1
102
RTVSPost2010Prop29
280
     1
102
RTVSPost2010PropOp29
 70
     1
102
RTVSPost2010Prop30
280
     1
102
RTVSPost2010PropOp30
 70
     1
102
RTVSPost2010Prop31
280
     0
102
RTVSPost2010PropOp31
 70
     1
102
RTVSPost2010Prop32
280
     0
102
RTVSPost2010PropOp32
 70
     1
102
RTVSPost2010Prop33
280
     0
102
RTVSPost2010PropOp33
 70
     1
102
RTVSPost2010Prop34
280
     0
102
RTVSPost2010PropOp34
 70
     1
102
RTVSPost2010Prop35
280
     0
102
RTVSPost2010PropOp35
 70
     1
102
RTVSPost2010Prop36
280
     0
102
RTVSPost2010PropOp36
 70
     1
102
RTVSPost2010Prop37
 90
       50
102
RTVSPost2010PropOp37
 70
     1
102
RTVSPost2010Prop38
140
0.0
102
RTVSPost2010PropOp38
 70
     1
102
RTVSPost2010Prop39
140
1.0
102
RTVSPost2010PropOp39
 70
     1
102
RTVSPost2010Prop40
 90
        0
102
RTVSPost2010PropOp40
 70
     1
102
RTVSPost2010Prop41ColorIndex
 90
       18
102
RTVSPost2010Prop41ColorRGB
 90
        0
102
RTVSPost2010PropOp41
 70
     1
102
RTVSPost2010Prop42
 90
       50
102
RTVSPost2010PropOp42
 70
     1
102
RTVSPost2010Prop43
 90
        3
102
RTVSPost2010PropOp43
 70
     1
102
RTVSPost2010Prop44ColorIndex
 90
        5
102
RTVSPost2010Prop44ColorRGB
 90
      255
102
RTVSPost2010PropOp44
 70
     1
102
RTVSPost2010Prop45
280
     0
102
RTVSPost2010PropOp45
 70
     1
102
RTVSPost2010Prop46
 90
       50
102
RTVSPost2010PropOp46
 70
     1
102
RTVSPost2010Prop47
 90
       50
102
RTVSPost2010PropOp47
 70
     1
102
RTVSPost2010Prop48
 90
       50
102
RTVSPost2010PropOp48
 70
     1
102
RTVSPost2010Prop49
280
     0
102
RTVSPost2010PropOp49
 70
     1
102
RTVSPost2010Prop50
 90
       50
102
RTVSPost2010PropOp50
 70
     1
102
RTVSPost2010Prop51ColorIndex
 90
      256
102
RTVSPost2010Prop51ColorRGB
 90
-16777216
102
RTVSPost2010PropOp51
 70
     0
102
RTVSPost2010Prop52
140
1.0
102
RTVSPost2010PropOp52
 70
     0
102
RTVSPost2010Prop53
 90
        2
102
RTVSPost2010PropOp53
 70
     1
102
RTVSPost2010Prop54
  1
strokes_ogs.tif
102
RTVSPost2010PropOp54
 70
     1
102
RTVSPost2010Prop55
280
     0
102
RTVSPost2010PropOp55
 70
     1
102
RTVSPost2010Prop56
140
1.0
102
RTVSPost2010PropOp56
 70
     1
102
RTVSPost2010Prop57
140
1.0
102
RTVSPost2010PropOp57
 70
     1
  0
XRECORD
  5
291
102
{ACAD_REACTORS
330
290
102
}
330
290
100
AcDbXrecord
280
     1
102
RTVSPropertyOp0
 70
     1
102
RTVSPropertyOp1
 70
     1
102
RTVSPropertyOp2
 70
     1
102
RTVSPropertyOp3
 70
     1
102
RTVSPropertyOp4
 70
     1
102
RTVSPropertyOp5
 70
     1
102
RTVSPropertyOp6
 70
     1
102
RTVSPropertyOp7
 70
     1
102
RTVSPropertyOp8
 70
     1
102
RTVSPropertyOp9
 70
     1
102
RTVSPropertyOp10
 70
     1
102
RTVSPropertyOp11
 70
     1
102
RTVSPropertyOp12
 70
     1
102
RTVSPropertyOp13
 70
     1
102
RTVSPropertyOp14
 70
     1
102
RTVSPropertyOp15
 70
     1
102
RTVSPropertyOp16
 70
     1
102
RTVSPropertyOp17
 70
     1
102
RTVSPropertyOp18
 70
     1
102
RTVSPropertyOp19
 70
     1
102
RTVSPropertyOp20
 70
     1
102
RTVSPropertyOp21
 70
     1
102
RTVSPropertyOp22
 70
     1
102
RTVSPropertyOp23
 70
     1
102
RTVSPropertyOp24
 70
     1
102
RTVSPropertyOp25
 70
     1
102
RTVSPropertyOp26
 70
     1
102
RTVSPropertyOp27
 70
     1
102
RTVSPropertyOp28
 70
     1
102
RTVSPropertyOp29
 70
     1
102
RTVSPropertyOp30
 70
     1
102
RTVSPropertyOp31
 70
     1
102
RTVSPropertyOp32
 70
     1
102
RTVSPropertyOp33
 70
     1
102
RTVSPropertyOp34
 70
     1
102
RTVSPropertyOp35
 70
     1
102
RTVSPropertyOp36
 70
     1
102
RTVSPropertyOp37
 70
     1
102
RTVSPropertyOp38
 70
     1
102
RTVSPropertyOp39
 70
     1
102
RTVSPropertyOp40
 70
     1
102
RTVSPropertyOp41
 70
     1
102
RTVSPropertyOp42
 70
     1
102
RTVSPropertyOp43
 70
     1
102
RTVSPropertyOp44
 70
     1
102
RTVSPropertyOp45
 70
     1
102
RTVSPropertyOp46
 70
     1
102
RTVSPropertyOp47
 70
     1
102
RTVSPropertyOp48
 70
     1
102
RTVSPropertyOp49
 70
     1
102
RTVSPropertyOp50
 70
     1
102
RTVSPropertyOp51
 70
     0
102
RTVSPropertyOp52
 70
     0
102
RTVSPropertyOp53
 70
     1
102
RTVSPropertyOp54
 70
     1
102
RTVSPropertyOp55
 70
     1
102
RTVSPropertyOp56
 70
     1
102
RTVSPropertyOp57
 70
     1
102
RTVSPost2010Prop28
280
     0
102
RTVSPost2010PropOp28
 70
     1
102
RTVSPost2010Prop29
280
     1
102
RTVSPost2010PropOp29
 70
     1
102
RTVSPost2010Prop30
280
     1
102
RTVSPost2010PropOp30
 70
     1
102
RTVSPost2010Prop31
280
     0
102
RTVSPost2010PropOp31
 70
     1
102
RTVSPost2010Prop32
280
     0
102
RTVSPost2010PropOp32
 70
     1
102
RTVSPost2010Prop33
280
     0
102
RTVSPost2010PropOp33
 70
     1
102
RTVSPost2010Prop34
280
     0
102
RTVSPost2010PropOp34
 70
     1
102
RTVSPost2010Prop35
280
     0
102
RTVSPost2010PropOp35
 70
     1
102
RTVSPost2010Prop36
280
     0
102
RTVSPost2010PropOp36
 70
     1
102
RTVSPost2010Prop37
 90
       50
102
RTVSPost2010PropOp37
 70
     1
102
RTVSPost2010Prop38
140
0.0
102
RTVSPost2010PropOp38
 70
     1
102
RTVSPost2010Prop39
140
1.0
102
RTVSPost2010PropOp39
 70
     1
102
RTVSPost2010Prop40
 90
        0
102
RTVSPost2010PropOp40
 70
     1
102
RTVSPost2010Prop41ColorIndex
 90
       18
102
RTVSPost2010Prop41ColorRGB
 90
        0
102
RTVSPost2010PropOp41
 70
     1
102
RTVSPost2010Prop42
 90
       50
102
RTVSPost2010PropOp42
 70
     1
102
RTVSPost2010Prop43
 90
        3
102
RTVSPost2010PropOp43
 70
     1
102
RTVSPost2010Prop44ColorIndex
 90
        5
102
RTVSPost2010Prop44ColorRGB
 90
      255
102
RTVSPost2010PropOp44
 70
     1
102
RTVSPost2010Prop45
280
     0
102
RTVSPost2010PropOp45
 70
     1
102
RTVSPost2010Prop46
 90
       50
102
RTVSPost2010PropOp46
 70
     1
102
RTVSPost2010Prop47
 90
       50
102
RTVSPost2010PropOp47
 70
     1
102
RTVSPost2010Prop48
 90
       50
102
RTVSPost2010PropOp48
 70
     1
102
RTVSPost2010Prop49
280
     0
102
RTVSPost2010PropOp49
 70
     1
102
RTVSPost2010Prop50
 90
       50
102
RTVSPost2010PropOp50
 70
     1
102
RTVSPost2010Prop51ColorIndex
 90
      256
102
RTVSPost2010Prop51ColorRGB
 90
-16777216
102
RTVSPost2010PropOp51
 70
     0
102
RTVSPost2010Prop52
140
1.0
102
RTVSPost2010PropOp52
 70
     0
102
RTVSPost2010Prop53
 90
        2
102
RTVSPost2010PropOp53
 70
     1
102
RTVSPost2010Prop54
  1
strokes_ogs.tif
102
RTVSPost2010PropOp54
 70
     1
102
RTVSPost2010Prop55
280
     0
102
RTVSPost2010PropOp55
 70
     1
102
RTVSPost2010Prop56
140
1.0
102
RTVSPost2010PropOp56
 70
     1
102
RTVSPost2010Prop57
140
1.0
102
RTVSPost2010PropOp57
 70
     1
  0
XRECORD
  5
2A1
102
{ACAD_REACTORS
330
2A0
102
}
330
2A0
100
AcDbXrecord
280
     1
102
RTVSPropertyOp0
 70
     0
102
RTVSPropertyOp1
 70
     0
102
RTVSPropertyOp2
 70
     0
102
RTVSPropertyOp3
 70
     0
102
RTVSPropertyOp4
 70
     0
102
RTVSPropertyOp5
 70
     0
102
RTVSPropertyOp6
 70
     0
102
RTVSPropertyOp7
 70
     0
102
RTVSPropertyOp8
 70
     0
102
RTVSPropertyOp9
 70
     0
102
RTVSPropertyOp10
 70
     0
102
RTVSPropertyOp11
 70
     0
102
RTVSPropertyOp12
 70
     0
102
RTVSPropertyOp13
 70
     0
102
RTVSPropertyOp14
 70
     2
102
RTVSPropertyOp15
 70
     0
102
RTVSPropertyOp16
 70
     0
102
RTVSPropertyOp17
 70
     0
102
RTVSPropertyOp18
 70
     0
102
RTVSPropertyOp19
 70
     0
102
RTVSPropertyOp20
 70
     0
102
RTVSPropertyOp21
 70
     0
102
RTVSPropertyOp22
 70
     0
102
RTVSPropertyOp23
 70
     0
102
RTVSPropertyOp24
 70
     0
102
RTVSPropertyOp25
 70
     0
102
RTVSPropertyOp26
 70
     0
102
RTVSPropertyOp27
 70
     0
102
RTVSPropertyOp28
 70
     0
102
RTVSPropertyOp29
 70
     0
102
RTVSPropertyOp30
 70
     0
102
RTVSPropertyOp31
 70
     0
102
RTVSPropertyOp32
 70
     0
102
RTVSPropertyOp33
 70
     0
102
RTVSPropertyOp34
 70
     0
102
RTVSPropertyOp35
 70
     0
102
RTVSPropertyOp36
 70
     0
102
RTVSPropertyOp37
 70
     0
102
RTVSPropertyOp38
 70
     0
102
RTVSPropertyOp39
 70
     0
102
RTVSPropertyOp40
 70
     0
102
RTVSPropertyOp41
 70
     0
102
RTVSPropertyOp42
 70
     0
102
RTVSPropertyOp43
 70
     0
102
RTVSPropertyOp44
 70
     0
102
RTVSPropertyOp45
 70
     0
102
RTVSPropertyOp46
 70
     0
102
RTVSPropertyOp47
 70
     0
102
RTVSPropertyOp48
 70
     0
102
RTVSPropertyOp49
 70
     0
102
RTVSPropertyOp50
 70
     0
102
RTVSPropertyOp51
 70
     0
102
RTVSPropertyOp52
 70
     0
102
RTVSPropertyOp53
 70
     0
102
RTVSPropertyOp54
 70
     0
102
RTVSPropertyOp55
 70
     0
102
RTVSPropertyOp56
 70
     0
102
RTVSPropertyOp57
 70
     0
102
RTVSPost2010Prop28
280
     0
102
RTVSPost2010PropOp28
 70
     0
102
RTVSPost2010Prop29
280
     1
102
RTVSPost2010PropOp29
 70
     0
102
RTVSPost2010Prop30
280
     1
102
RTVSPost2010PropOp30
 70
     0
102
RTVSPost2010Prop31
280
     0
102
RTVSPost2010PropOp31
 70
     0
102
RTVSPost2010Prop32
280
     0
102
RTVSPost2010PropOp32
 70
     0
102
RTVSPost2010Prop33
280
     0
102
RTVSPost2010PropOp33
 70
     0
102
RTVSPost2010Prop34
280
     0
102
RTVSPost2010PropOp34
 70
     0
102
RTVSPost2010Prop35
280
     0
102
RTVSPost2010PropOp35
 70
     0
102
RTVSPost2010Prop36
280
     0
102
RTVSPost2010PropOp36
 70
     0
102
RTVSPost2010Prop37
 90
       50
102
RTVSPost2010PropOp37
 70
     0
102
RTVSPost2010Prop38
140
0.0
102
RTVSPost2010PropOp38
 70
     0
102
RTVSPost2010Prop39
140
1.0
102
RTVSPost2010PropOp39
 70
     0
102
RTVSPost2010Prop40
 90
        0
102
RTVSPost2010PropOp40
 70
     0
102
RTVSPost2010Prop41ColorIndex
 90
       18
102
RTVSPost2010Prop41ColorRGB
 90
        0
102
RTVSPost2010PropOp41
 70
     0
102
RTVSPost2010Prop42
 90
       50
102
RTVSPost2010PropOp42
 70
     0
102
RTVSPost2010Prop43
 90
        3
102
RTVSPost2010PropOp43
 70
     0
102
RTVSPost2010Prop44ColorIndex
 90
        5
102
RTVSPost2010Prop44ColorRGB
 90
      255
102
RTVSPost2010PropOp44
 70
     0
102
RTVSPost2010Prop45
280
     0
102
RTVSPost2010PropOp45
 70
     0
102
RTVSPost2010Prop46
 90
       50
102
RTVSPost2010PropOp46
 70
     0
102
RTVSPost2010Prop47
 90
       50
102
RTVSPost2010PropOp47
 70
     0
102
RTVSPost2010Prop48
 90
       50
102
RTVSPost2010PropOp48
 70
     0
102
RTVSPost2010Prop49
280
     0
102
RTVSPost2010PropOp49
 70
     0
102
RTVSPost2010Prop50
 90
       50
102
RTVSPost2010PropOp50
 70
     0
102
RTVSPost2010Prop51ColorIndex
 90
      256
102
RTVSPost2010Prop51ColorRGB
 90
-16777216
102
RTVSPost2010PropOp51
 70
     0
102
RTVSPost2010Prop52
140
1.0
102
RTVSPost2010PropOp52
 70
     0
102
RTVSPost2010Prop53
 90
        2
102
RTVSPost2010PropOp53
 70
     0
102
RTVSPost2010Prop54
  1
strokes_ogs.tif
102
RTVSPost2010PropOp54
 70
     0
102
RTVSPost2010Prop55
280
     0
102
RTVSPost2010PropOp55
 70
     0
102
RTVSPost2010Prop56
140
1.0
102
RTVSPost2010PropOp56
 70
     0
102
RTVSPost2010Prop57
140
1.0
102
RTVSPost2010PropOp57
 70
     0
  0
XRECORD
  5
299
102
{ACAD_REACTORS
330
298
102
}
330
298
100
AcDbXrecord
280
     1
102
RTVSPropertyOp0
 70
     1
102
RTVSPropertyOp1
 70
     1
102
RTVSPropertyOp2
 70
     1
102
RTVSPropertyOp3
 70
     1
102
RTVSPropertyOp4
 70
     1
102
RTVSPropertyOp5
 70
     1
102
RTVSPropertyOp6
 70
     1
102
RTVSPropertyOp7
 70
     1
102
RTVSPropertyOp8
 70
     1
102
RTVSPropertyOp9
 70
     1
102
RTVSPropertyOp10
 70
     1
102
RTVSPropertyOp11
 70
     1
102
RTVSPropertyOp12
 70
     1
102
RTVSPropertyOp13
 70
     1
102
RTVSPropertyOp14
 70
     1
102
RTVSPropertyOp15
 70
     1
102
RTVSPropertyOp16
 70
     1
102
RTVSPropertyOp17
 70
     1
102
RTVSPropertyOp18
 70
     1
102
RTVSPropertyOp19
 70
     1
102
RTVSPropertyOp20
 70
     1
102
RTVSPropertyOp21
 70
     1
102
RTVSPropertyOp22
 70
     1
102
RTVSPropertyOp23
 70
     1
102
RTVSPropertyOp24
 70
     1
102
RTVSPropertyOp25
 70
     1
102
RTVSPropertyOp26
 70
     1
102
RTVSPropertyOp27
 70
     1
102
RTVSPropertyOp28
 70
     1
102
RTVSPropertyOp29
 70
     1
102
RTVSPropertyOp30
 70
     1
102
RTVSPropertyOp31
 70
     1
102
RTVSPropertyOp32
 70
     1
102
RTVSPropertyOp33
 70
     1
102
RTVSPropertyOp34
 70
     1
102
RTVSPropertyOp35
 70
     1
102
RTVSPropertyOp36
 70
     1
102
RTVSPropertyOp37
 70
     1
102
RTVSPropertyOp38
 70
     1
102
RTVSPropertyOp39
 70
     1
102
RTVSPropertyOp40
 70
     1
102
RTVSPropertyOp41
 70
     1
102
RTVSPropertyOp42
 70
     1
102
RTVSPropertyOp43
 70
     1
102
RTVSPropertyOp44
 70
     1
102
RTVSPropertyOp45
 70
     1
102
RTVSPropertyOp46
 70
     1
102
RTVSPropertyOp47
 70
     1
102
RTVSPropertyOp48
 70
     1
102
RTVSPropertyOp49
 70
     1
102
RTVSPropertyOp50
 70
     1
102
RTVSPropertyOp51
 70
     0
102
RTVSPropertyOp52
 70
     0
102
RTVSPropertyOp53
 70
     1
102
RTVSPropertyOp54
 70
     1
102
RTVSPropertyOp55
 70
     1
102
RTVSPropertyOp56
 70
     1
102
RTVSPropertyOp57
 70
     1
102
RTVSPost2010Prop28
280
     0
102
RTVSPost2010PropOp28
 70
     1
102
RTVSPost2010Prop29
280
     1
102
RTVSPost2010PropOp29
 70
     1
102
RTVSPost2010Prop30
280
     1
102
RTVSPost2010PropOp30
 70
     1
102
RTVSPost2010Prop31
280
     0
102
RTVSPost2010PropOp31
 70
     1
102
RTVSPost2010Prop32
280
     0
102
RTVSPost2010PropOp32
 70
     1
102
RTVSPost2010Prop33
280
     0
102
RTVSPost2010PropOp33
 70
     1
102
RTVSPost2010Prop34
280
     0
102
RTVSPost2010PropOp34
 70
     1
102
RTVSPost2010Prop35
280
     0
102
RTVSPost2010PropOp35
 70
     1
102
RTVSPost2010Prop36
280
     0
102
RTVSPost2010PropOp36
 70
     1
102
RTVSPost2010Prop37
 90
       50
102
RTVSPost2010PropOp37
 70
     1
102
RTVSPost2010Prop38
140
0.0
102
RTVSPost2010PropOp38
 70
     1
102
RTVSPost2010Prop39
140
1.0
102
RTVSPost2010PropOp39
 70
     1
102
RTVSPost2010Prop40
 90
        0
102
RTVSPost2010PropOp40
 70
     1
102
RTVSPost2010Prop41ColorIndex
 90
       18
102
RTVSPost2010Prop41ColorRGB
 90
        0
102
RTVSPost2010PropOp41
 70
     1
102
RTVSPost2010Prop42
 90
       50
102
RTVSPost2010PropOp42
 70
     1
102
RTVSPost2010Prop43
 90
        3
102
RTVSPost2010PropOp43
 70
     1
102
RTVSPost2010Prop44ColorIndex
 90
        5
102
RTVSPost2010Prop44ColorRGB
 90
      255
102
RTVSPost2010PropOp44
 70
     1
102
RTVSPost2010Prop45
280
     0
102
RTVSPost2010PropOp45
 70
     1
102
RTVSPost2010Prop46
 90
       50
102
RTVSPost2010PropOp46
 70
     1
102
RTVSPost2010Prop47
 90
       50
102
RTVSPost2010PropOp47
 70
     1
102
RTVSPost2010Prop48
 90
       50
102
RTVSPost2010PropOp48
 70
     1
102
RTVSPost2010Prop49
280
     0
102
RTVSPost2010PropOp49
 70
     1
102
RTVSPost2010Prop50
 90
       50
102
RTVSPost2010PropOp50
 70
     1
102
RTVSPost2010Prop51ColorIndex
 90
      256
102
RTVSPost2010Prop51ColorRGB
 90
-16777216
102
RTVSPost2010PropOp51
 70
     0
102
RTVSPost2010Prop52
140
1.0
102
RTVSPost2010PropOp52
 70
     0
102
RTVSPost2010Prop53
 90
        2
102
RTVSPost2010PropOp53
 70
     1
102
RTVSPost2010Prop54
  1
strokes_ogs.tif
102
RTVSPost2010PropOp54
 70
     1
102
RTVSPost2010Prop55
280
     0
102
RTVSPost2010PropOp55
 70
     1
102
RTVSPost2010Prop56
140
1.0
102
RTVSPost2010PropOp56
 70
     1
102
RTVSPost2010Prop57
140
1.0
102
RTVSPost2010PropOp57
 70
     1
  0
XRECORD
  5
27D
102
{ACAD_REACTORS
330
27C
102
}
330
27C
100
AcDbXrecord
280
     1
102
RTVSPropertyOp0
 70
     1
102
RTVSPropertyOp1
 70
     1
102
RTVSPropertyOp2
 70
     1
102
RTVSPropertyOp3
 70
     1
102
RTVSPropertyOp4
 70
     1
102
RTVSPropertyOp5
 70
     1
102
RTVSPropertyOp6
 70
     1
102
RTVSPropertyOp7
 70
     1
102
RTVSPropertyOp8
 70
     1
102
RTVSPropertyOp9
 70
     1
102
RTVSPropertyOp10
 70
     1
102
RTVSPropertyOp11
 70
     1
102
RTVSPropertyOp12
 70
     1
102
RTVSPropertyOp13
 70
     1
102
RTVSPropertyOp14
 70
     1
102
RTVSPropertyOp15
 70
     1
102
RTVSPropertyOp16
 70
     1
102
RTVSPropertyOp17
 70
     1
102
RTVSPropertyOp18
 70
     1
102
RTVSPropertyOp19
 70
     1
102
RTVSPropertyOp20
 70
     1
102
RTVSPropertyOp21
 70
     1
102
RTVSPropertyOp22
 70
     1
102
RTVSPropertyOp23
 70
     1
102
RTVSPropertyOp24
 70
     1
102
RTVSPropertyOp25
 70
     1
102
RTVSPropertyOp26
 70
     1
102
RTVSPropertyOp27
 70
     1
102
RTVSPropertyOp28
 70
     1
102
RTVSPropertyOp29
 70
     1
102
RTVSPropertyOp30
 70
     1
102
RTVSPropertyOp31
 70
     1
102
RTVSPropertyOp32
 70
     1
102
RTVSPropertyOp33
 70
     1
102
RTVSPropertyOp34
 70
     1
102
RTVSPropertyOp35
 70
     1
102
RTVSPropertyOp36
 70
     1
102
RTVSPropertyOp37
 70
     1
102
RTVSPropertyOp38
 70
     1
102
RTVSPropertyOp39
 70
     1
102
RTVSPropertyOp40
 70
     1
102
RTVSPropertyOp41
 70
     1
102
RTVSPropertyOp42
 70
     1
102
RTVSPropertyOp43
 70
     1
102
RTVSPropertyOp44
 70
     1
102
RTVSPropertyOp45
 70
     1
102
RTVSPropertyOp46
 70
     1
102
RTVSPropertyOp47
 70
     1
102
RTVSPropertyOp48
 70
     1
102
RTVSPropertyOp49
 70
     1
102
RTVSPropertyOp50
 70
     1
102
RTVSPropertyOp51
 70
     0
102
RTVSPropertyOp52
 70
     0
102
RTVSPropertyOp53
 70
     1
102
RTVSPropertyOp54
 70
     1
102
RTVSPropertyOp55
 70
     1
102
RTVSPropertyOp56
 70
     1
102
RTVSPropertyOp57
 70
     1
102
RTVSPost2010Prop28
280
     0
102
RTVSPost2010PropOp28
 70
     1
102
RTVSPost2010Prop29
280
     1
102
RTVSPost2010PropOp29
 70
     1
102
RTVSPost2010Prop30
280
     1
102
RTVSPost2010PropOp30
 70
     1
102
RTVSPost2010Prop31
280
     0
102
RTVSPost2010PropOp31
 70
     1
102
RTVSPost2010Prop32
280
     0
102
RTVSPost2010PropOp32
 70
     1
102
RTVSPost2010Prop33
280
     0
102
RTVSPost2010PropOp33
 70
     1
102
RTVSPost2010Prop34
280
     0
102
RTVSPost2010PropOp34
 70
     1
102
RTVSPost2010Prop35
280
     0
102
RTVSPost2010PropOp35
 70
     1
102
RTVSPost2010Prop36
280
     0
102
RTVSPost2010PropOp36
 70
     1
102
RTVSPost2010Prop37
 90
       50
102
RTVSPost2010PropOp37
 70
     1
102
RTVSPost2010Prop38
140
0.0
102
RTVSPost2010PropOp38
 70
     1
102
RTVSPost2010Prop39
140
1.0
102
RTVSPost2010PropOp39
 70
     1
102
RTVSPost2010Prop40
 90
        0
102
RTVSPost2010PropOp40
 70
     1
102
RTVSPost2010Prop41ColorIndex
 90
       18
102
RTVSPost2010Prop41ColorRGB
 90
        0
102
RTVSPost2010PropOp41
 70
     1
102
RTVSPost2010Prop42
 90
       50
102
RTVSPost2010PropOp42
 70
     1
102
RTVSPost2010Prop43
 90
        3
102
RTVSPost2010PropOp43
 70
     1
102
RTVSPost2010Prop44ColorIndex
 90
        5
102
RTVSPost2010Prop44ColorRGB
 90
      255
102
RTVSPost2010PropOp44
 70
     1
102
RTVSPost2010Prop45
280
     0
102
RTVSPost2010PropOp45
 70
     1
102
RTVSPost2010Prop46
 90
       50
102
RTVSPost2010PropOp46
 70
     1
102
RTVSPost2010Prop47
 90
       50
102
RTVSPost2010PropOp47
 70
     1
102
RTVSPost2010Prop48
 90
       50
102
RTVSPost2010PropOp48
 70
     1
102
RTVSPost2010Prop49
280
     0
102
RTVSPost2010PropOp49
 70
     1
102
RTVSPost2010Prop50
 90
       50
102
RTVSPost2010PropOp50
 70
     1
102
RTVSPost2010Prop51ColorIndex
 90
      256
102
RTVSPost2010Prop51ColorRGB
 90
-16777216
102
RTVSPost2010PropOp51
 70
     0
102
RTVSPost2010Prop52
140
1.0
102
RTVSPost2010PropOp52
 70
     0
102
RTVSPost2010Prop53
 90
        2
102
RTVSPost2010PropOp53
 70
     1
102
RTVSPost2010Prop54
  1
strokes_ogs.tif
102
RTVSPost2010PropOp54
 70
     1
102
RTVSPost2010Prop55
280
     0
102
RTVSPost2010PropOp55
 70
     1
102
RTVSPost2010Prop56
140
1.0
102
RTVSPost2010PropOp56
 70
     1
102
RTVSPost2010Prop57
140
1.0
102
RTVSPost2010PropOp57
 70
     1
  0
XRECORD
  5
27F
102
{ACAD_REACTORS
330
27E
102
}
330
27E
100
AcDbXrecord
280
     1
102
RTVSPropertyOp0
 70
     1
102
RTVSPropertyOp1
 70
     1
102
RTVSPropertyOp2
 70
     1
102
RTVSPropertyOp3
 70
     1
102
RTVSPropertyOp4
 70
     1
102
RTVSPropertyOp5
 70
     1
102
RTVSPropertyOp6
 70
     1
102
RTVSPropertyOp7
 70
     1
102
RTVSPropertyOp8
 70
     1
102
RTVSPropertyOp9
 70
     1
102
RTVSPropertyOp10
 70
     1
102
RTVSPropertyOp11
 70
     1
102
RTVSPropertyOp12
 70
     1
102
RTVSPropertyOp13
 70
     1
102
RTVSPropertyOp14
 70
     1
102
RTVSPropertyOp15
 70
     1
102
RTVSPropertyOp16
 70
     1
102
RTVSPropertyOp17
 70
     1
102
RTVSPropertyOp18
 70
     1
102
RTVSPropertyOp19
 70
     1
102
RTVSPropertyOp20
 70
     1
102
RTVSPropertyOp21
 70
     1
102
RTVSPropertyOp22
 70
     1
102
RTVSPropertyOp23
 70
     1
102
RTVSPropertyOp24
 70
     1
102
RTVSPropertyOp25
 70
     1
102
RTVSPropertyOp26
 70
     1
102
RTVSPropertyOp27
 70
     1
102
RTVSPropertyOp28
 70
     1
102
RTVSPropertyOp29
 70
     1
102
RTVSPropertyOp30
 70
     1
102
RTVSPropertyOp31
 70
     1
102
RTVSPropertyOp32
 70
     1
102
RTVSPropertyOp33
 70
     1
102
RTVSPropertyOp34
 70
     1
102
RTVSPropertyOp35
 70
     1
102
RTVSPropertyOp36
 70
     1
102
RTVSPropertyOp37
 70
     1
102
RTVSPropertyOp38
 70
     1
102
RTVSPropertyOp39
 70
     1
102
RTVSPropertyOp40
 70
     1
102
RTVSPropertyOp41
 70
     1
102
RTVSPropertyOp42
 70
     1
102
RTVSPropertyOp43
 70
     1
102
RTVSPropertyOp44
 70
     1
102
RTVSPropertyOp45
 70
     1
102
RTVSPropertyOp46
 70
     1
102
RTVSPropertyOp47
 70
     1
102
RTVSPropertyOp48
 70
     1
102
RTVSPropertyOp49
 70
     1
102
RTVSPropertyOp50
 70
     1
102
RTVSPropertyOp51
 70
     0
102
RTVSPropertyOp52
 70
     0
102
RTVSPropertyOp53
 70
     1
102
RTVSPropertyOp54
 70
     1
102
RTVSPropertyOp55
 70
     1
102
RTVSPropertyOp56
 70
     1
102
RTVSPropertyOp57
 70
     1
102
RTVSPost2010Prop28
280
     0
102
RTVSPost2010PropOp28
 70
     1
102
RTVSPost2010Prop29
280
     1
102
RTVSPost2010PropOp29
 70
     1
102
RTVSPost2010Prop30
280
     1
102
RTVSPost2010PropOp30
 70
     1
102
RTVSPost2010Prop31
280
     0
102
RTVSPost2010PropOp31
 70
     1
102
RTVSPost2010Prop32
280
     0
102
RTVSPost2010PropOp32
 70
     1
102
RTVSPost2010Prop33
280
     0
102
RTVSPost2010PropOp33
 70
     1
102
RTVSPost2010Prop34
280
     0
102
RTVSPost2010PropOp34
 70
     1
102
RTVSPost2010Prop35
280
     0
102
RTVSPost2010PropOp35
 70
     1
102
RTVSPost2010Prop36
280
     0
102
RTVSPost2010PropOp36
 70
     1
102
RTVSPost2010Prop37
 90
       50
102
RTVSPost2010PropOp37
 70
     1
102
RTVSPost2010Prop38
140
0.0
102
RTVSPost2010PropOp38
 70
     1
102
RTVSPost2010Prop39
140
1.0
102
RTVSPost2010PropOp39
 70
     1
102
RTVSPost2010Prop40
 90
        0
102
RTVSPost2010PropOp40
 70
     1
102
RTVSPost2010Prop41ColorIndex
 90
       18
102
RTVSPost2010Prop41ColorRGB
 90
        0
102
RTVSPost2010PropOp41
 70
     1
102
RTVSPost2010Prop42
 90
       50
102
RTVSPost2010PropOp42
 70
     1
102
RTVSPost2010Prop43
 90
        3
102
RTVSPost2010PropOp43
 70
     1
102
RTVSPost2010Prop44ColorIndex
 90
        5
102
RTVSPost2010Prop44ColorRGB
 90
      255
102
RTVSPost2010PropOp44
 70
     1
102
RTVSPost2010Prop45
280
     0
102
RTVSPost2010PropOp45
 70
     1
102
RTVSPost2010Prop46
 90
       50
102
RTVSPost2010PropOp46
 70
     1
102
RTVSPost2010Prop47
 90
       50
102
RTVSPost2010PropOp47
 70
     1
102
RTVSPost2010Prop48
 90
       50
102
RTVSPost2010PropOp48
 70
     1
102
RTVSPost2010Prop49
280
     0
102
RTVSPost2010PropOp49
 70
     1
102
RTVSPost2010Prop50
 90
       50
102
RTVSPost2010PropOp50
 70
     1
102
RTVSPost2010Prop51ColorIndex
 90
      256
102
RTVSPost2010Prop51ColorRGB
 90
-16777216
102
RTVSPost2010PropOp51
 70
     0
102
RTVSPost2010Prop52
140
1.0
102
RTVSPost2010PropOp52
 70
     0
102
RTVSPost2010Prop53
 90
        2
102
RTVSPost2010PropOp53
 70
     1
102
RTVSPost2010Prop54
  1
strokes_ogs.tif
102
RTVSPost2010PropOp54
 70
     1
102
RTVSPost2010Prop55
280
     0
102
RTVSPost2010PropOp55
 70
     1
102
RTVSPost2010Prop56
140
1.0
102
RTVSPost2010PropOp56
 70
     1
102
RTVSPost2010Prop57
140
1.0
102
RTVSPost2010PropOp57
 70
     1
  0
XRECORD
  5
281
102
{ACAD_REACTORS
330
280
102
}
330
280
100
AcDbXrecord
280
     1
102
RTVSPropertyOp0
 70
     1
102
RTVSPropertyOp1
 70
     1
102
RTVSPropertyOp2
 70
     1
102
RTVSPropertyOp3
 70
     1
102
RTVSPropertyOp4
 70
     1
102
RTVSPropertyOp5
 70
     1
102
RTVSPropertyOp6
 70
     1
102
RTVSPropertyOp7
 70
     1
102
RTVSPropertyOp8
 70
     1
102
RTVSPropertyOp9
 70
     1
102
RTVSPropertyOp10
 70
     1
102
RTVSPropertyOp11
 70
     1
102
RTVSPropertyOp12
 70
     1
102
RTVSPropertyOp13
 70
     1
102
RTVSPropertyOp14
 70
     1
102
RTVSPropertyOp15
 70
     1
102
RTVSPropertyOp16
 70
     1
102
RTVSPropertyOp17
 70
     1
102
RTVSPropertyOp18
 70
     1
102
RTVSPropertyOp19
 70
     1
102
RTVSPropertyOp20
 70
     1
102
RTVSPropertyOp21
 70
     1
102
RTVSPropertyOp22
 70
     1
102
RTVSPropertyOp23
 70
     1
102
RTVSPropertyOp24
 70
     1
102
RTVSPropertyOp25
 70
     1
102
RTVSPropertyOp26
 70
     1
102
RTVSPropertyOp27
 70
     1
102
RTVSPropertyOp28
 70
     1
102
RTVSPropertyOp29
 70
     1
102
RTVSPropertyOp30
 70
     1
102
RTVSPropertyOp31
 70
     1
102
RTVSPropertyOp32
 70
     1
102
RTVSPropertyOp33
 70
     1
102
RTVSPropertyOp34
 70
     1
102
RTVSPropertyOp35
 70
     1
102
RTVSPropertyOp36
 70
     1
102
RTVSPropertyOp37
 70
     1
102
RTVSPropertyOp38
 70
     1
102
RTVSPropertyOp39
 70
     1
102
RTVSPropertyOp40
 70
     1
102
RTVSPropertyOp41
 70
     1
102
RTVSPropertyOp42
 70
     1
102
RTVSPropertyOp43
 70
     1
102
RTVSPropertyOp44
 70
     1
102
RTVSPropertyOp45
 70
     1
102
RTVSPropertyOp46
 70
     1
102
RTVSPropertyOp47
 70
     1
102
RTVSPropertyOp48
 70
     1
102
RTVSPropertyOp49
 70
     1
102
RTVSPropertyOp50
 70
     1
102
RTVSPropertyOp51
 70
     0
102
RTVSPropertyOp52
 70
     0
102
RTVSPropertyOp53
 70
     1
102
RTVSPropertyOp54
 70
     1
102
RTVSPropertyOp55
 70
     1
102
RTVSPropertyOp56
 70
     1
102
RTVSPropertyOp57
 70
     1
102
RTVSPost2010Prop28
280
     0
102
RTVSPost2010PropOp28
 70
     1
102
RTVSPost2010Prop29
280
     1
102
RTVSPost2010PropOp29
 70
     1
102
RTVSPost2010Prop30
280
     1
102
RTVSPost2010PropOp30
 70
     1
102
RTVSPost2010Prop31
280
     0
102
RTVSPost2010PropOp31
 70
     1
102
RTVSPost2010Prop32
280
     0
102
RTVSPost2010PropOp32
 70
     1
102
RTVSPost2010Prop33
280
     0
102
RTVSPost2010PropOp33
 70
     1
102
RTVSPost2010Prop34
280
     0
102
RTVSPost2010PropOp34
 70
     1
102
RTVSPost2010Prop35
280
     0
102
RTVSPost2010PropOp35
 70
     1
102
RTVSPost2010Prop36
280
     0
102
RTVSPost2010PropOp36
 70
     1
102
RTVSPost2010Prop37
 90
       50
102
RTVSPost2010PropOp37
 70
     1
102
RTVSPost2010Prop38
140
0.0
102
RTVSPost2010PropOp38
 70
     1
102
RTVSPost2010Prop39
140
1.0
102
RTVSPost2010PropOp39
 70
     1
102
RTVSPost2010Prop40
 90
        0
102
RTVSPost2010PropOp40
 70
     1
102
RTVSPost2010Prop41ColorIndex
 90
       18
102
RTVSPost2010Prop41ColorRGB
 90
        0
102
RTVSPost2010PropOp41
 70
     1
102
RTVSPost2010Prop42
 90
       50
102
RTVSPost2010PropOp42
 70
     1
102
RTVSPost2010Prop43
 90
        3
102
RTVSPost2010PropOp43
 70
     1
102
RTVSPost2010Prop44ColorIndex
 90
        5
102
RTVSPost2010Prop44ColorRGB
 90
      255
102
RTVSPost2010PropOp44
 70
     1
102
RTVSPost2010Prop45
280
     0
102
RTVSPost2010PropOp45
 70
     1
102
RTVSPost2010Prop46
 90
       50
102
RTVSPost2010PropOp46
 70
     1
102
RTVSPost2010Prop47
 90
       50
102
RTVSPost2010PropOp47
 70
     1
102
RTVSPost2010Prop48
 90
       50
102
RTVSPost2010PropOp48
 70
     1
102
RTVSPost2010Prop49
280
     0
102
RTVSPost2010PropOp49
 70
     1
102
RTVSPost2010Prop50
 90
       50
102
RTVSPost2010PropOp50
 70
     1
102
RTVSPost2010Prop51ColorIndex
 90
      256
102
RTVSPost2010Prop51ColorRGB
 90
-16777216
102
RTVSPost2010PropOp51
 70
     0
102
RTVSPost2010Prop52
140
1.0
102
RTVSPost2010PropOp52
 70
     0
102
RTVSPost2010Prop53
 90
        2
102
RTVSPost2010PropOp53
 70
     1
102
RTVSPost2010Prop54
  1
strokes_ogs.tif
102
RTVSPost2010PropOp54
 70
     1
102
RTVSPost2010Prop55
280
     0
102
RTVSPost2010PropOp55
 70
     1
102
RTVSPost2010Prop56
140
1.0
102
RTVSPost2010PropOp56
 70
     1
102
RTVSPost2010Prop57
140
1.0
102
RTVSPost2010PropOp57
 70
     1
  0
XRECORD
  5
283
102
{ACAD_REACTORS
330
282
102
}
330
282
100
AcDbXrecord
280
     1
102
RTVSPropertyOp0
 70
     1
102
RTVSPropertyOp1
 70
     1
102
RTVSPropertyOp2
 70
     1
102
RTVSPropertyOp3
 70
     1
102
RTVSPropertyOp4
 70
     1
102
RTVSPropertyOp5
 70
     1
102
RTVSPropertyOp6
 70
     1
102
RTVSPropertyOp7
 70
     1
102
RTVSPropertyOp8
 70
     1
102
RTVSPropertyOp9
 70
     1
102
RTVSPropertyOp10
 70
     1
102
RTVSPropertyOp11
 70
     1
102
RTVSPropertyOp12
 70
     1
102
RTVSPropertyOp13
 70
     1
102
RTVSPropertyOp14
 70
     1
102
RTVSPropertyOp15
 70
     1
102
RTVSPropertyOp16
 70
     1
102
RTVSPropertyOp17
 70
     1
102
RTVSPropertyOp18
 70
     1
102
RTVSPropertyOp19
 70
     1
102
RTVSPropertyOp20
 70
     1
102
RTVSPropertyOp21
 70
     1
102
RTVSPropertyOp22
 70
     1
102
RTVSPropertyOp23
 70
     1
102
RTVSPropertyOp24
 70
     1
102
RTVSPropertyOp25
 70
     1
102
RTVSPropertyOp26
 70
     1
102
RTVSPropertyOp27
 70
     1
102
RTVSPropertyOp28
 70
     1
102
RTVSPropertyOp29
 70
     1
102
RTVSPropertyOp30
 70
     1
102
RTVSPropertyOp31
 70
     1
102
RTVSPropertyOp32
 70
     1
102
RTVSPropertyOp33
 70
     1
102
RTVSPropertyOp34
 70
     1
102
RTVSPropertyOp35
 70
     1
102
RTVSPropertyOp36
 70
     1
102
RTVSPropertyOp37
 70
     1
102
RTVSPropertyOp38
 70
     1
102
RTVSPropertyOp39
 70
     1
102
RTVSPropertyOp40
 70
     1
102
RTVSPropertyOp41
 70
     1
102
RTVSPropertyOp42
 70
     1
102
RTVSPropertyOp43
 70
     1
102
RTVSPropertyOp44
 70
     1
102
RTVSPropertyOp45
 70
     1
102
RTVSPropertyOp46
 70
     1
102
RTVSPropertyOp47
 70
     1
102
RTVSPropertyOp48
 70
     1
102
RTVSPropertyOp49
 70
     1
102
RTVSPropertyOp50
 70
     1
102
RTVSPropertyOp51
 70
     0
102
RTVSPropertyOp52
 70
     0
102
RTVSPropertyOp53
 70
     1
102
RTVSPropertyOp54
 70
     1
102
RTVSPropertyOp55
 70
     1
102
RTVSPropertyOp56
 70
     1
102
RTVSPropertyOp57
 70
     1
102
RTVSPost2010Prop28
280
     0
102
RTVSPost2010PropOp28
 70
     1
102
RTVSPost2010Prop29
280
     1
102
RTVSPost2010PropOp29
 70
     1
102
RTVSPost2010Prop30
280
     1
102
RTVSPost2010PropOp30
 70
     1
102
RTVSPost2010Prop31
280
     0
102
RTVSPost2010PropOp31
 70
     1
102
RTVSPost2010Prop32
280
     0
102
RTVSPost2010PropOp32
 70
     1
102
RTVSPost2010Prop33
280
     0
102
RTVSPost2010PropOp33
 70
     1
102
RTVSPost2010Prop34
280
     0
102
RTVSPost2010PropOp34
 70
     1
102
RTVSPost2010Prop35
280
     0
102
RTVSPost2010PropOp35
 70
     1
102
RTVSPost2010Prop36
280
     0
102
RTVSPost2010PropOp36
 70
     1
102
RTVSPost2010Prop37
 90
       50
102
RTVSPost2010PropOp37
 70
     1
102
RTVSPost2010Prop38
140
0.0
102
RTVSPost2010PropOp38
 70
     1
102
RTVSPost2010Prop39
140
1.0
102
RTVSPost2010PropOp39
 70
     1
102
RTVSPost2010Prop40
 90
        0
102
RTVSPost2010PropOp40
 70
     1
102
RTVSPost2010Prop41ColorIndex
 90
       18
102
RTVSPost2010Prop41ColorRGB
 90
        0
102
RTVSPost2010PropOp41
 70
     1
102
RTVSPost2010Prop42
 90
       50
102
RTVSPost2010PropOp42
 70
     1
102
RTVSPost2010Prop43
 90
        3
102
RTVSPost2010PropOp43
 70
     1
102
RTVSPost2010Prop44ColorIndex
 90
        5
102
RTVSPost2010Prop44ColorRGB
 90
      255
102
RTVSPost2010PropOp44
 70
     1
102
RTVSPost2010Prop45
280
     0
102
RTVSPost2010PropOp45
 70
     1
102
RTVSPost2010Prop46
 90
       50
102
RTVSPost2010PropOp46
 70
     1
102
RTVSPost2010Prop47
 90
       50
102
RTVSPost2010PropOp47
 70
     1
102
RTVSPost2010Prop48
 90
       50
102
RTVSPost2010PropOp48
 70
     1
102
RTVSPost2010Prop49
280
     0
102
RTVSPost2010PropOp49
 70
     1
102
RTVSPost2010Prop50
 90
       50
102
RTVSPost2010PropOp50
 70
     1
102
RTVSPost2010Prop51ColorIndex
 90
      256
102
RTVSPost2010Prop51ColorRGB
 90
-16777216
102
RTVSPost2010PropOp51
 70
     0
102
RTVSPost2010Prop52
140
1.0
102
RTVSPost2010PropOp52
 70
     0
102
RTVSPost2010Prop53
 90
        2
102
RTVSPost2010PropOp53
 70
     1
102
RTVSPost2010Prop54
  1
strokes_ogs.tif
102
RTVSPost2010PropOp54
 70
     1
102
RTVSPost2010Prop55
280
     0
102
RTVSPost2010PropOp55
 70
     1
102
RTVSPost2010Prop56
140
1.0
102
RTVSPost2010PropOp56
 70
     1
102
RTVSPost2010Prop57
140
1.0
102
RTVSPost2010PropOp57
 70
     1
  0
XRECORD
  5
289
102
{ACAD_REACTORS
330
288
102
}
330
288
100
AcDbXrecord
280
     1
102
RTVSPropertyOp0
 70
     1
102
RTVSPropertyOp1
 70
     1
102
RTVSPropertyOp2
 70
     1
102
RTVSPropertyOp3
 70
     1
102
RTVSPropertyOp4
 70
     1
102
RTVSPropertyOp5
 70
     1
102
RTVSPropertyOp6
 70
     1
102
RTVSPropertyOp7
 70
     1
102
RTVSPropertyOp8
 70
     1
102
RTVSPropertyOp9
 70
     1
102
RTVSPropertyOp10
 70
     1
102
RTVSPropertyOp11
 70
     1
102
RTVSPropertyOp12
 70
     1
102
RTVSPropertyOp13
 70
     1
102
RTVSPropertyOp14
 70
     1
102
RTVSPropertyOp15
 70
     1
102
RTVSPropertyOp16
 70
     1
102
RTVSPropertyOp17
 70
     1
102
RTVSPropertyOp18
 70
     1
102
RTVSPropertyOp19
 70
     1
102
RTVSPropertyOp20
 70
     1
102
RTVSPropertyOp21
 70
     1
102
RTVSPropertyOp22
 70
     1
102
RTVSPropertyOp23
 70
     1
102
RTVSPropertyOp24
 70
     1
102
RTVSPropertyOp25
 70
     1
102
RTVSPropertyOp26
 70
     1
102
RTVSPropertyOp27
 70
     1
102
RTVSPropertyOp28
 70
     1
102
RTVSPropertyOp29
 70
     1
102
RTVSPropertyOp30
 70
     1
102
RTVSPropertyOp31
 70
     1
102
RTVSPropertyOp32
 70
     1
102
RTVSPropertyOp33
 70
     1
102
RTVSPropertyOp34
 70
     1
102
RTVSPropertyOp35
 70
     1
102
RTVSPropertyOp36
 70
     1
102
RTVSPropertyOp37
 70
     1
102
RTVSPropertyOp38
 70
     1
102
RTVSPropertyOp39
 70
     1
102
RTVSPropertyOp40
 70
     1
102
RTVSPropertyOp41
 70
     1
102
RTVSPropertyOp42
 70
     1
102
RTVSPropertyOp43
 70
     1
102
RTVSPropertyOp44
 70
     1
102
RTVSPropertyOp45
 70
     1
102
RTVSPropertyOp46
 70
     1
102
RTVSPropertyOp47
 70
     1
102
RTVSPropertyOp48
 70
     1
102
RTVSPropertyOp49
 70
     1
102
RTVSPropertyOp50
 70
     1
102
RTVSPropertyOp51
 70
     0
102
RTVSPropertyOp52
 70
     0
102
RTVSPropertyOp53
 70
     1
102
RTVSPropertyOp54
 70
     1
102
RTVSPropertyOp55
 70
     1
102
RTVSPropertyOp56
 70
     1
102
RTVSPropertyOp57
 70
     1
102
RTVSPost2010Prop28
280
     0
102
RTVSPost2010PropOp28
 70
     1
102
RTVSPost2010Prop29
280
     1
102
RTVSPost2010PropOp29
 70
     1
102
RTVSPost2010Prop30
280
     1
102
RTVSPost2010PropOp30
 70
     1
102
RTVSPost2010Prop31
280
     0
102
RTVSPost2010PropOp31
 70
     1
102
RTVSPost2010Prop32
280
     0
102
RTVSPost2010PropOp32
 70
     1
102
RTVSPost2010Prop33
280
     0
102
RTVSPost2010PropOp33
 70
     1
102
RTVSPost2010Prop34
280
     0
102
RTVSPost2010PropOp34
 70
     1
102
RTVSPost2010Prop35
280
     0
102
RTVSPost2010PropOp35
 70
     1
102
RTVSPost2010Prop36
280
     0
102
RTVSPost2010PropOp36
 70
     1
102
RTVSPost2010Prop37
 90
       50
102
RTVSPost2010PropOp37
 70
     1
102
RTVSPost2010Prop38
140
0.0
102
RTVSPost2010PropOp38
 70
     1
102
RTVSPost2010Prop39
140
1.0
102
RTVSPost2010PropOp39
 70
     1
102
RTVSPost2010Prop40
 90
        0
102
RTVSPost2010PropOp40
 70
     1
102
RTVSPost2010Prop41ColorIndex
 90
       18
102
RTVSPost2010Prop41ColorRGB
 90
        0
102
RTVSPost2010PropOp41
 70
     1
102
RTVSPost2010Prop42
 90
       50
102
RTVSPost2010PropOp42
 70
     1
102
RTVSPost2010Prop43
 90
        3
102
RTVSPost2010PropOp43
 70
     1
102
RTVSPost2010Prop44ColorIndex
 90
        5
102
RTVSPost2010Prop44ColorRGB
 90
      255
102
RTVSPost2010PropOp44
 70
     1
102
RTVSPost2010Prop45
280
     0
102
RTVSPost2010PropOp45
 70
     1
102
RTVSPost2010Prop46
 90
       50
102
RTVSPost2010PropOp46
 70
     1
102
RTVSPost2010Prop47
 90
       50
102
RTVSPost2010PropOp47
 70
     1
102
RTVSPost2010Prop48
 90
       50
102
RTVSPost2010PropOp48
 70
     1
102
RTVSPost2010Prop49
280
     0
102
RTVSPost2010PropOp49
 70
     1
102
RTVSPost2010Prop50
 90
       50
102
RTVSPost2010PropOp50
 70
     1
102
RTVSPost2010Prop51ColorIndex
 90
      256
102
RTVSPost2010Prop51ColorRGB
 90
-16777216
102
RTVSPost2010PropOp51
 70
     0
102
RTVSPost2010Prop52
140
1.0
102
RTVSPost2010PropOp52
 70
     0
102
RTVSPost2010Prop53
 90
        2
102
RTVSPost2010PropOp53
 70
     1
102
RTVSPost2010Prop54
  1
strokes_ogs.tif
102
RTVSPost2010PropOp54
 70
     1
102
RTVSPost2010Prop55
280
     0
102
RTVSPost2010PropOp55
 70
     1
102
RTVSPost2010Prop56
140
1.0
102
RTVSPost2010PropOp56
 70
     1
102
RTVSPost2010Prop57
140
1.0
102
RTVSPost2010PropOp57
 70
     1
  0
XRECORD
  5
29D
102
{ACAD_REACTORS
330
29C
102
}
330
29C
100
AcDbXrecord
280
     1
102
RTVSPropertyOp0
 70
     0
102
RTVSPropertyOp1
 70
     0
102
RTVSPropertyOp2
 70
     0
102
RTVSPropertyOp3
 70
     0
102
RTVSPropertyOp4
 70
     0
102
RTVSPropertyOp5
 70
     0
102
RTVSPropertyOp6
 70
     0
102
RTVSPropertyOp7
 70
     0
102
RTVSPropertyOp8
 70
     0
102
RTVSPropertyOp9
 70
     0
102
RTVSPropertyOp10
 70
     0
102
RTVSPropertyOp11
 70
     0
102
RTVSPropertyOp12
 70
     0
102
RTVSPropertyOp13
 70
     0
102
RTVSPropertyOp14
 70
     2
102
RTVSPropertyOp15
 70
     0
102
RTVSPropertyOp16
 70
     0
102
RTVSPropertyOp17
 70
     0
102
RTVSPropertyOp18
 70
     0
102
RTVSPropertyOp19
 70
     0
102
RTVSPropertyOp20
 70
     0
102
RTVSPropertyOp21
 70
     0
102
RTVSPropertyOp22
 70
     0
102
RTVSPropertyOp23
 70
     0
102
RTVSPropertyOp24
 70
     0
102
RTVSPropertyOp25
 70
     0
102
RTVSPropertyOp26
 70
     0
102
RTVSPropertyOp27
 70
     0
102
RTVSPropertyOp28
 70
     0
102
RTVSPropertyOp29
 70
     0
102
RTVSPropertyOp30
 70
     0
102
RTVSPropertyOp31
 70
     0
102
RTVSPropertyOp32
 70
     0
102
RTVSPropertyOp33
 70
     0
102
RTVSPropertyOp34
 70
     0
102
RTVSPropertyOp35
 70
     0
102
RTVSPropertyOp36
 70
     0
102
RTVSPropertyOp37
 70
     0
102
RTVSPropertyOp38
 70
     0
102
RTVSPropertyOp39
 70
     0
102
RTVSPropertyOp40
 70
     0
102
RTVSPropertyOp41
 70
     0
102
RTVSPropertyOp42
 70
     0
102
RTVSPropertyOp43
 70
     0
102
RTVSPropertyOp44
 70
     0
102
RTVSPropertyOp45
 70
     0
102
RTVSPropertyOp46
 70
     0
102
RTVSPropertyOp47
 70
     0
102
RTVSPropertyOp48
 70
     0
102
RTVSPropertyOp49
 70
     0
102
RTVSPropertyOp50
 70
     0
102
RTVSPropertyOp51
 70
     0
102
RTVSPropertyOp52
 70
     0
102
RTVSPropertyOp53
 70
     0
102
RTVSPropertyOp54
 70
     0
102
RTVSPropertyOp55
 70
     0
102
RTVSPropertyOp56
 70
     0
102
RTVSPropertyOp57
 70
     0
102
RTVSPost2010Prop28
280
     0
102
RTVSPost2010PropOp28
 70
     0
102
RTVSPost2010Prop29
280
     1
102
RTVSPost2010PropOp29
 70
     0
102
RTVSPost2010Prop30
280
     1
102
RTVSPost2010PropOp30
 70
     0
102
RTVSPost2010Prop31
280
     0
102
RTVSPost2010PropOp31
 70
     0
102
RTVSPost2010Prop32
280
     0
102
RTVSPost2010PropOp32
 70
     0
102
RTVSPost2010Prop33
280
     0
102
RTVSPost2010PropOp33
 70
     0
102
RTVSPost2010Prop34
280
     0
102
RTVSPost2010PropOp34
 70
     0
102
RTVSPost2010Prop35
280
     0
102
RTVSPost2010PropOp35
 70
     0
102
RTVSPost2010Prop36
280
     0
102
RTVSPost2010PropOp36
 70
     0
102
RTVSPost2010Prop37
 90
       50
102
RTVSPost2010PropOp37
 70
     0
102
RTVSPost2010Prop38
140
0.0
102
RTVSPost2010PropOp38
 70
     0
102
RTVSPost2010Prop39
140
1.0
102
RTVSPost2010PropOp39
 70
     0
102
RTVSPost2010Prop40
 90
        0
102
RTVSPost2010PropOp40
 70
     0
102
RTVSPost2010Prop41ColorIndex
 90
       18
102
RTVSPost2010Prop41ColorRGB
 90
        0
102
RTVSPost2010PropOp41
 70
     0
102
RTVSPost2010Prop42
 90
       50
102
RTVSPost2010PropOp42
 70
     0
102
RTVSPost2010Prop43
 90
        3
102
RTVSPost2010PropOp43
 70
     0
102
RTVSPost2010Prop44ColorIndex
 90
        5
102
RTVSPost2010Prop44ColorRGB
 90
      255
102
RTVSPost2010PropOp44
 70
     0
102
RTVSPost2010Prop45
280
     0
102
RTVSPost2010PropOp45
 70
     0
102
RTVSPost2010Prop46
 90
       50
102
RTVSPost2010PropOp46
 70
     0
102
RTVSPost2010Prop47
 90
       50
102
RTVSPost2010PropOp47
 70
     0
102
RTVSPost2010Prop48
 90
       50
102
RTVSPost2010PropOp48
 70
     0
102
RTVSPost2010Prop49
280
     0
102
RTVSPost2010PropOp49
 70
     0
102
RTVSPost2010Prop50
 90
       50
102
RTVSPost2010PropOp50
 70
     0
102
RTVSPost2010Prop51ColorIndex
 90
      256
102
RTVSPost2010Prop51ColorRGB
 90
-16777216
102
RTVSPost2010PropOp51
 70
     0
102
RTVSPost2010Prop52
140
1.0
102
RTVSPost2010PropOp52
 70
     0
102
RTVSPost2010Prop53
 90
        2
102
RTVSPost2010PropOp53
 70
     0
102
RTVSPost2010Prop54
  1
strokes_ogs.tif
102
RTVSPost2010PropOp54
 70
     0
102
RTVSPost2010Prop55
280
     0
102
RTVSPost2010PropOp55
 70
     0
102
RTVSPost2010Prop56
140
1.0
102
RTVSPost2010PropOp56
 70
     0
102
RTVSPost2010Prop57
140
1.0
102
RTVSPost2010PropOp57
 70
     0
  0
XRECORD
  5
297
102
{ACAD_REACTORS
330
296
102
}
330
296
100
AcDbXrecord
280
     1
102
RTVSPropertyOp0
 70
     1
102
RTVSPropertyOp1
 70
     1
102
RTVSPropertyOp2
 70
     1
102
RTVSPropertyOp3
 70
     1
102
RTVSPropertyOp4
 70
     1
102
RTVSPropertyOp5
 70
     1
102
RTVSPropertyOp6
 70
     1
102
RTVSPropertyOp7
 70
     1
102
RTVSPropertyOp8
 70
     1
102
RTVSPropertyOp9
 70
     1
102
RTVSPropertyOp10
 70
     1
102
RTVSPropertyOp11
 70
     1
102
RTVSPropertyOp12
 70
     1
102
RTVSPropertyOp13
 70
     1
102
RTVSPropertyOp14
 70
     1
102
RTVSPropertyOp15
 70
     1
102
RTVSPropertyOp16
 70
     1
102
RTVSPropertyOp17
 70
     1
102
RTVSPropertyOp18
 70
     1
102
RTVSPropertyOp19
 70
     1
102
RTVSPropertyOp20
 70
     1
102
RTVSPropertyOp21
 70
     1
102
RTVSPropertyOp22
 70
     1
102
RTVSPropertyOp23
 70
     1
102
RTVSPropertyOp24
 70
     1
102
RTVSPropertyOp25
 70
     1
102
RTVSPropertyOp26
 70
     1
102
RTVSPropertyOp27
 70
     1
102
RTVSPropertyOp28
 70
     1
102
RTVSPropertyOp29
 70
     1
102
RTVSPropertyOp30
 70
     1
102
RTVSPropertyOp31
 70
     1
102
RTVSPropertyOp32
 70
     1
102
RTVSPropertyOp33
 70
     1
102
RTVSPropertyOp34
 70
     1
102
RTVSPropertyOp35
 70
     1
102
RTVSPropertyOp36
 70
     1
102
RTVSPropertyOp37
 70
     1
102
RTVSPropertyOp38
 70
     1
102
RTVSPropertyOp39
 70
     1
102
RTVSPropertyOp40
 70
     1
102
RTVSPropertyOp41
 70
     1
102
RTVSPropertyOp42
 70
     1
102
RTVSPropertyOp43
 70
     1
102
RTVSPropertyOp44
 70
     1
102
RTVSPropertyOp45
 70
     1
102
RTVSPropertyOp46
 70
     1
102
RTVSPropertyOp47
 70
     1
102
RTVSPropertyOp48
 70
     1
102
RTVSPropertyOp49
 70
     1
102
RTVSPropertyOp50
 70
     1
102
RTVSPropertyOp51
 70
     0
102
RTVSPropertyOp52
 70
     0
102
RTVSPropertyOp53
 70
     1
102
RTVSPropertyOp54
 70
     1
102
RTVSPropertyOp55
 70
     1
102
RTVSPropertyOp56
 70
     1
102
RTVSPropertyOp57
 70
     1
102
RTVSPost2010Prop28
280
     0
102
RTVSPost2010PropOp28
 70
     1
102
RTVSPost2010Prop29
280
     1
102
RTVSPost2010PropOp29
 70
     1
102
RTVSPost2010Prop30
280
     1
102
RTVSPost2010PropOp30
 70
     1
102
RTVSPost2010Prop31
280
     0
102
RTVSPost2010PropOp31
 70
     1
102
RTVSPost2010Prop32
280
     0
102
RTVSPost2010PropOp32
 70
     1
102
RTVSPost2010Prop33
280
     0
102
RTVSPost2010PropOp33
 70
     1
102
RTVSPost2010Prop34
280
     0
102
RTVSPost2010PropOp34
 70
     1
102
RTVSPost2010Prop35
280
     0
102
RTVSPost2010PropOp35
 70
     1
102
RTVSPost2010Prop36
280
     0
102
RTVSPost2010PropOp36
 70
     1
102
RTVSPost2010Prop37
 90
       50
102
RTVSPost2010PropOp37
 70
     1
102
RTVSPost2010Prop38
140
0.0
102
RTVSPost2010PropOp38
 70
     1
102
RTVSPost2010Prop39
140
1.0
102
RTVSPost2010PropOp39
 70
     1
102
RTVSPost2010Prop40
 90
        0
102
RTVSPost2010PropOp40
 70
     1
102
RTVSPost2010Prop41ColorIndex
 90
       18
102
RTVSPost2010Prop41ColorRGB
 90
        0
102
RTVSPost2010PropOp41
 70
     1
102
RTVSPost2010Prop42
 90
       50
102
RTVSPost2010PropOp42
 70
     1
102
RTVSPost2010Prop43
 90
        3
102
RTVSPost2010PropOp43
 70
     1
102
RTVSPost2010Prop44ColorIndex
 90
        5
102
RTVSPost2010Prop44ColorRGB
 90
      255
102
RTVSPost2010PropOp44
 70
     1
102
RTVSPost2010Prop45
280
     0
102
RTVSPost2010PropOp45
 70
     1
102
RTVSPost2010Prop46
 90
       50
102
RTVSPost2010PropOp46
 70
     1
102
RTVSPost2010Prop47
 90
       50
102
RTVSPost2010PropOp47
 70
     1
102
RTVSPost2010Prop48
 90
       50
102
RTVSPost2010PropOp48
 70
     1
102
RTVSPost2010Prop49
280
     0
102
RTVSPost2010PropOp49
 70
     1
102
RTVSPost2010Prop50
 90
       50
102
RTVSPost2010PropOp50
 70
     1
102
RTVSPost2010Prop51ColorIndex
 90
      256
102
RTVSPost2010Prop51ColorRGB
 90
-16777216
102
RTVSPost2010PropOp51
 70
     0
102
RTVSPost2010Prop52
140
1.0
102
RTVSPost2010PropOp52
 70
     0
102
RTVSPost2010Prop53
 90
        2
102
RTVSPost2010PropOp53
 70
     1
102
RTVSPost2010Prop54
  1
strokes_ogs.tif
102
RTVSPost2010PropOp54
 70
     1
102
RTVSPost2010Prop55
280
     0
102
RTVSPost2010PropOp55
 70
     1
102
RTVSPost2010Prop56
140
1.0
102
RTVSPost2010PropOp56
 70
     1
102
RTVSPost2010Prop57
140
1.0
102
RTVSPost2010PropOp57
 70
     1
  0
XRECORD
  5
29F
102
{ACAD_REACTORS
330
29E
102
}
330
29E
100
AcDbXrecord
280
     1
102
RTVSPropertyOp0
 70
     0
102
RTVSPropertyOp1
 70
     0
102
RTVSPropertyOp2
 70
     0
102
RTVSPropertyOp3
 70
     0
102
RTVSPropertyOp4
 70
     0
102
RTVSPropertyOp5
 70
     0
102
RTVSPropertyOp6
 70
     0
102
RTVSPropertyOp7
 70
     0
102
RTVSPropertyOp8
 70
     0
102
RTVSPropertyOp9
 70
     0
102
RTVSPropertyOp10
 70
     0
102
RTVSPropertyOp11
 70
     0
102
RTVSPropertyOp12
 70
     0
102
RTVSPropertyOp13
 70
     0
102
RTVSPropertyOp14
 70
     2
102
RTVSPropertyOp15
 70
     0
102
RTVSPropertyOp16
 70
     0
102
RTVSPropertyOp17
 70
     0
102
RTVSPropertyOp18
 70
     0
102
RTVSPropertyOp19
 70
     0
102
RTVSPropertyOp20
 70
     0
102
RTVSPropertyOp21
 70
     0
102
RTVSPropertyOp22
 70
     0
102
RTVSPropertyOp23
 70
     0
102
RTVSPropertyOp24
 70
     0
102
RTVSPropertyOp25
 70
     0
102
RTVSPropertyOp26
 70
     0
102
RTVSPropertyOp27
 70
     0
102
RTVSPropertyOp28
 70
     0
102
RTVSPropertyOp29
 70
     0
102
RTVSPropertyOp30
 70
     0
102
RTVSPropertyOp31
 70
     0
102
RTVSPropertyOp32
 70
     0
102
RTVSPropertyOp33
 70
     0
102
RTVSPropertyOp34
 70
     0
102
RTVSPropertyOp35
 70
     0
102
RTVSPropertyOp36
 70
     0
102
RTVSPropertyOp37
 70
     0
102
RTVSPropertyOp38
 70
     0
102
RTVSPropertyOp39
 70
     0
102
RTVSPropertyOp40
 70
     0
102
RTVSPropertyOp41
 70
     0
102
RTVSPropertyOp42
 70
     0
102
RTVSPropertyOp43
 70
     0
102
RTVSPropertyOp44
 70
     0
102
RTVSPropertyOp45
 70
     0
102
RTVSPropertyOp46
 70
     0
102
RTVSPropertyOp47
 70
     0
102
RTVSPropertyOp48
 70
     0
102
RTVSPropertyOp49
 70
     0
102
RTVSPropertyOp50
 70
     0
102
RTVSPropertyOp51
 70
     0
102
RTVSPropertyOp52
 70
     0
102
RTVSPropertyOp53
 70
     0
102
RTVSPropertyOp54
 70
     0
102
RTVSPropertyOp55
 70
     0
102
RTVSPropertyOp56
 70
     0
102
RTVSPropertyOp57
 70
     0
102
RTVSPost2010Prop28
280
     0
102
RTVSPost2010PropOp28
 70
     0
102
RTVSPost2010Prop29
280
     1
102
RTVSPost2010PropOp29
 70
     0
102
RTVSPost2010Prop30
280
     1
102
RTVSPost2010PropOp30
 70
     0
102
RTVSPost2010Prop31
280
     0
102
RTVSPost2010PropOp31
 70
     0
102
RTVSPost2010Prop32
280
     0
102
RTVSPost2010PropOp32
 70
     0
102
RTVSPost2010Prop33
280
     0
102
RTVSPost2010PropOp33
 70
     0
102
RTVSPost2010Prop34
280
     0
102
RTVSPost2010PropOp34
 70
     0
102
RTVSPost2010Prop35
280
     0
102
RTVSPost2010PropOp35
 70
     0
102
RTVSPost2010Prop36
280
     0
102
RTVSPost2010PropOp36
 70
     0
102
RTVSPost2010Prop37
 90
       50
102
RTVSPost2010PropOp37
 70
     0
102
RTVSPost2010Prop38
140
0.0
102
RTVSPost2010PropOp38
 70
     0
102
RTVSPost2010Prop39
140
1.0
102
RTVSPost2010PropOp39
 70
     0
102
RTVSPost2010Prop40
 90
        0
102
RTVSPost2010PropOp40
 70
     0
102
RTVSPost2010Prop41ColorIndex
 90
       18
102
RTVSPost2010Prop41ColorRGB
 90
        0
102
RTVSPost2010PropOp41
 70
     0
102
RTVSPost2010Prop42
 90
       50
102
RTVSPost2010PropOp42
 70
     0
102
RTVSPost2010Prop43
 90
        3
102
RTVSPost2010PropOp43
 70
     0
102
RTVSPost2010Prop44ColorIndex
 90
        5
102
RTVSPost2010Prop44ColorRGB
 90
      255
102
RTVSPost2010PropOp44
 70
     0
102
RTVSPost2010Prop45
280
     0
102
RTVSPost2010PropOp45
 70
     0
102
RTVSPost2010Prop46
 90
       50
102
RTVSPost2010PropOp46
 70
     0
102
RTVSPost2010Prop47
 90
       50
102
RTVSPost2010PropOp47
 70
     0
102
RTVSPost2010Prop48
 90
       50
102
RTVSPost2010PropOp48
 70
     0
102
RTVSPost2010Prop49
280
     0
102
RTVSPost2010PropOp49
 70
     0
102
RTVSPost2010Prop50
 90
       50
102
RTVSPost2010PropOp50
 70
     0
102
RTVSPost2010Prop51ColorIndex
 90
      256
102
RTVSPost2010Prop51ColorRGB
 90
-16777216
102
RTVSPost2010PropOp51
 70
     0
102
RTVSPost2010Prop52
140
1.0
102
RTVSPost2010PropOp52
 70
     0
102
RTVSPost2010Prop53
 90
        2
102
RTVSPost2010PropOp53
 70
     0
102
RTVSPost2010Prop54
  1
strokes_ogs.tif
102
RTVSPost2010PropOp54
 70
     0
102
RTVSPost2010Prop55
280
     0
102
RTVSPost2010PropOp55
 70
     0
102
RTVSPost2010Prop56
140
1.0
102
RTVSPost2010PropOp56
 70
     0
102
RTVSPost2010Prop57
140
1.0
102
RTVSPost2010PropOp57
 70
     0
  0
XRECORD
  5
28D
102
{ACAD_REACTORS
330
28C
102
}
330
28C
100
AcDbXrecord
280
     1
102
RTVSPropertyOp0
 70
     1
102
RTVSPropertyOp1
 70
     1
102
RTVSPropertyOp2
 70
     1
102
RTVSPropertyOp3
 70
     1
102
RTVSPropertyOp4
 70
     1
102
RTVSPropertyOp5
 70
     1
102
RTVSPropertyOp6
 70
     1
102
RTVSPropertyOp7
 70
     1
102
RTVSPropertyOp8
 70
     1
102
RTVSPropertyOp9
 70
     1
102
RTVSPropertyOp10
 70
     1
102
RTVSPropertyOp11
 70
     1
102
RTVSPropertyOp12
 70
     1
102
RTVSPropertyOp13
 70
     1
102
RTVSPropertyOp14
 70
     1
102
RTVSPropertyOp15
 70
     1
102
RTVSPropertyOp16
 70
     1
102
RTVSPropertyOp17
 70
     1
102
RTVSPropertyOp18
 70
     1
102
RTVSPropertyOp19
 70
     1
102
RTVSPropertyOp20
 70
     1
102
RTVSPropertyOp21
 70
     1
102
RTVSPropertyOp22
 70
     1
102
RTVSPropertyOp23
 70
     1
102
RTVSPropertyOp24
 70
     1
102
RTVSPropertyOp25
 70
     1
102
RTVSPropertyOp26
 70
     1
102
RTVSPropertyOp27
 70
     1
102
RTVSPropertyOp28
 70
     1
102
RTVSPropertyOp29
 70
     1
102
RTVSPropertyOp30
 70
     1
102
RTVSPropertyOp31
 70
     1
102
RTVSPropertyOp32
 70
     1
102
RTVSPropertyOp33
 70
     1
102
RTVSPropertyOp34
 70
     1
102
RTVSPropertyOp35
 70
     1
102
RTVSPropertyOp36
 70
     1
102
RTVSPropertyOp37
 70
     1
102
RTVSPropertyOp38
 70
     1
102
RTVSPropertyOp39
 70
     1
102
RTVSPropertyOp40
 70
     1
102
RTVSPropertyOp41
 70
     1
102
RTVSPropertyOp42
 70
     1
102
RTVSPropertyOp43
 70
     1
102
RTVSPropertyOp44
 70
     1
102
RTVSPropertyOp45
 70
     1
102
RTVSPropertyOp46
 70
     1
102
RTVSPropertyOp47
 70
     1
102
RTVSPropertyOp48
 70
     1
102
RTVSPropertyOp49
 70
     1
102
RTVSPropertyOp50
 70
     1
102
RTVSPropertyOp51
 70
     0
102
RTVSPropertyOp52
 70
     0
102
RTVSPropertyOp53
 70
     1
102
RTVSPropertyOp54
 70
     1
102
RTVSPropertyOp55
 70
     1
102
RTVSPropertyOp56
 70
     1
102
RTVSPropertyOp57
 70
     1
102
RTVSPost2010Prop28
280
     0
102
RTVSPost2010PropOp28
 70
     1
102
RTVSPost2010Prop29
280
     1
102
RTVSPost2010PropOp29
 70
     1
102
RTVSPost2010Prop30
280
     1
102
RTVSPost2010PropOp30
 70
     1
102
RTVSPost2010Prop31
280
     0
102
RTVSPost2010PropOp31
 70
     1
102
RTVSPost2010Prop32
280
     0
102
RTVSPost2010PropOp32
 70
     1
102
RTVSPost2010Prop33
280
     0
102
RTVSPost2010PropOp33
 70
     1
102
RTVSPost2010Prop34
280
     0
102
RTVSPost2010PropOp34
 70
     1
102
RTVSPost2010Prop35
280
     0
102
RTVSPost2010PropOp35
 70
     1
102
RTVSPost2010Prop36
280
     0
102
RTVSPost2010PropOp36
 70
     1
102
RTVSPost2010Prop37
 90
       50
102
RTVSPost2010PropOp37
 70
     1
102
RTVSPost2010Prop38
140
0.0
102
RTVSPost2010PropOp38
 70
     1
102
RTVSPost2010Prop39
140
1.0
102
RTVSPost2010PropOp39
 70
     1
102
RTVSPost2010Prop40
 90
        0
102
RTVSPost2010PropOp40
 70
     1
102
RTVSPost2010Prop41ColorIndex
 90
       18
102
RTVSPost2010Prop41ColorRGB
 90
        0
102
RTVSPost2010PropOp41
 70
     1
102
RTVSPost2010Prop42
 90
       50
102
RTVSPost2010PropOp42
 70
     1
102
RTVSPost2010Prop43
 90
        3
102
RTVSPost2010PropOp43
 70
     1
102
RTVSPost2010Prop44ColorIndex
 90
        5
102
RTVSPost2010Prop44ColorRGB
 90
      255
102
RTVSPost2010PropOp44
 70
     1
102
RTVSPost2010Prop45
280
     0
102
RTVSPost2010PropOp45
 70
     1
102
RTVSPost2010Prop46
 90
       50
102
RTVSPost2010PropOp46
 70
     1
102
RTVSPost2010Prop47
 90
       50
102
RTVSPost2010PropOp47
 70
     1
102
RTVSPost2010Prop48
 90
       50
102
RTVSPost2010PropOp48
 70
     1
102
RTVSPost2010Prop49
280
     0
102
RTVSPost2010PropOp49
 70
     1
102
RTVSPost2010Prop50
 90
       50
102
RTVSPost2010PropOp50
 70
     1
102
RTVSPost2010Prop51ColorIndex
 90
      256
102
RTVSPost2010Prop51ColorRGB
 90
-16777216
102
RTVSPost2010PropOp51
 70
     0
102
RTVSPost2010Prop52
140
1.0
102
RTVSPost2010PropOp52
 70
     0
102
RTVSPost2010Prop53
 90
        2
102
RTVSPost2010PropOp53
 70
     1
102
RTVSPost2010Prop54
  1
strokes_ogs.tif
102
RTVSPost2010PropOp54
 70
     1
102
RTVSPost2010Prop55
280
     0
102
RTVSPost2010PropOp55
 70
     1
102
RTVSPost2010Prop56
140
1.0
102
RTVSPost2010PropOp56
 70
     1
102
RTVSPost2010Prop57
140
1.0
102
RTVSPost2010PropOp57
 70
     1
  0
XRECORD
  5
2AB
102
{ACAD_REACTORS
330
2AA
102
}
330
2AA
100
AcDbXrecord
280
     1
102
RTVSPropertyOp0
 70
     1
102
RTVSPropertyOp1
 70
     1
102
RTVSPropertyOp2
 70
     1
102
RTVSPropertyOp3
 70
     1
102
RTVSPropertyOp4
 70
     1
102
RTVSPropertyOp5
 70
     1
102
RTVSPropertyOp6
 70
     1
102
RTVSPropertyOp7
 70
     1
102
RTVSPropertyOp8
 70
     1
102
RTVSPropertyOp9
 70
     1
102
RTVSPropertyOp10
 70
     1
102
RTVSPropertyOp11
 70
     1
102
RTVSPropertyOp12
 70
     1
102
RTVSPropertyOp13
 70
     1
102
RTVSPropertyOp14
 70
     1
102
RTVSPropertyOp15
 70
     1
102
RTVSPropertyOp16
 70
     1
102
RTVSPropertyOp17
 70
     1
102
RTVSPropertyOp18
 70
     1
102
RTVSPropertyOp19
 70
     1
102
RTVSPropertyOp20
 70
     1
102
RTVSPropertyOp21
 70
     1
102
RTVSPropertyOp22
 70
     1
102
RTVSPropertyOp23
 70
     1
102
RTVSPropertyOp24
 70
     1
102
RTVSPropertyOp25
 70
     1
102
RTVSPropertyOp26
 70
     1
102
RTVSPropertyOp27
 70
     1
102
RTVSPropertyOp28
 70
     1
102
RTVSPropertyOp29
 70
     1
102
RTVSPropertyOp30
 70
     1
102
RTVSPropertyOp31
 70
     1
102
RTVSPropertyOp32
 70
     1
102
RTVSPropertyOp33
 70
     1
102
RTVSPropertyOp34
 70
     1
102
RTVSPropertyOp35
 70
     1
102
RTVSPropertyOp36
 70
     1
102
RTVSPropertyOp37
 70
     1
102
RTVSPropertyOp38
 70
     1
102
RTVSPropertyOp39
 70
     1
102
RTVSPropertyOp40
 70
     1
102
RTVSPropertyOp41
 70
     1
102
RTVSPropertyOp42
 70
     1
102
RTVSPropertyOp43
 70
     1
102
RTVSPropertyOp44
 70
     1
102
RTVSPropertyOp45
 70
     1
102
RTVSPropertyOp46
 70
     1
102
RTVSPropertyOp47
 70
     1
102
RTVSPropertyOp48
 70
     1
102
RTVSPropertyOp49
 70
     1
102
RTVSPropertyOp50
 70
     1
102
RTVSPropertyOp51
 70
     0
102
RTVSPropertyOp52
 70
     0
102
RTVSPropertyOp53
 70
     1
102
RTVSPropertyOp54
 70
     1
102
RTVSPropertyOp55
 70
     1
102
RTVSPropertyOp56
 70
     1
102
RTVSPropertyOp57
 70
     1
102
RTVSPost2010Prop28
280
     0
102
RTVSPost2010PropOp28
 70
     1
102
RTVSPost2010Prop29
280
     1
102
RTVSPost2010PropOp29
 70
     1
102
RTVSPost2010Prop30
280
     1
102
RTVSPost2010PropOp30
 70
     1
102
RTVSPost2010Prop31
280
     0
102
RTVSPost2010PropOp31
 70
     1
102
RTVSPost2010Prop32
280
     0
102
RTVSPost2010PropOp32
 70
     1
102
RTVSPost2010Prop33
280
     0
102
RTVSPost2010PropOp33
 70
     1
102
RTVSPost2010Prop34
280
     0
102
RTVSPost2010PropOp34
 70
     1
102
RTVSPost2010Prop35
280
     0
102
RTVSPost2010PropOp35
 70
     1
102
RTVSPost2010Prop36
280
     0
102
RTVSPost2010PropOp36
 70
     1
102
RTVSPost2010Prop37
 90
       50
102
RTVSPost2010PropOp37
 70
     1
102
RTVSPost2010Prop38
140
0.0
102
RTVSPost2010PropOp38
 70
     1
102
RTVSPost2010Prop39
140
1.0
102
RTVSPost2010PropOp39
 70
     1
102
RTVSPost2010Prop40
 90
        0
102
RTVSPost2010PropOp40
 70
     1
102
RTVSPost2010Prop41ColorIndex
 90
       18
102
RTVSPost2010Prop41ColorRGB
 90
        0
102
RTVSPost2010PropOp41
 70
     1
102
RTVSPost2010Prop42
 90
       50
102
RTVSPost2010PropOp42
 70
     1
102
RTVSPost2010Prop43
 90
        3
102
RTVSPost2010PropOp43
 70
     1
102
RTVSPost2010Prop44ColorIndex
 90
        5
102
RTVSPost2010Prop44ColorRGB
 90
      255
102
RTVSPost2010PropOp44
 70
     1
102
RTVSPost2010Prop45
280
     0
102
RTVSPost2010PropOp45
 70
     1
102
RTVSPost2010Prop46
 90
       50
102
RTVSPost2010PropOp46
 70
     1
102
RTVSPost2010Prop47
 90
       50
102
RTVSPost2010PropOp47
 70
     1
102
RTVSPost2010Prop48
 90
       50
102
RTVSPost2010PropOp48
 70
     1
102
RTVSPost2010Prop49
280
     0
102
RTVSPost2010PropOp49
 70
     1
102
RTVSPost2010Prop50
 90
       50
102
RTVSPost2010PropOp50
 70
     1
102
RTVSPost2010Prop51ColorIndex
 90
      256
102
RTVSPost2010Prop51ColorRGB
 90
-16777216
102
RTVSPost2010PropOp51
 70
     0
102
RTVSPost2010Prop52
140
1.0
102
RTVSPost2010PropOp52
 70
     0
102
RTVSPost2010Prop53
 90
        2
102
RTVSPost2010PropOp53
 70
     1
102
RTVSPost2010Prop54
  1
strokes_ogs.tif
102
RTVSPost2010PropOp54
 70
     1
102
RTVSPost2010Prop55
280
     0
102
RTVSPost2010PropOp55
 70
     1
102
RTVSPost2010Prop56
140
1.0
102
RTVSPost2010PropOp56
 70
     1
102
RTVSPost2010Prop57
140
1.0
102
RTVSPost2010PropOp57
 70
     1
  0
XRECORD
  5
2A9
102
{ACAD_REACTORS
330
2A8
102
}
330
2A8
100
AcDbXrecord
280
     1
102
RTVSPropertyOp0
 70
     1
102
RTVSPropertyOp1
 70
     1
102
RTVSPropertyOp2
 70
     1
102
RTVSPropertyOp3
 70
     1
102
RTVSPropertyOp4
 70
     1
102
RTVSPropertyOp5
 70
     1
102
RTVSPropertyOp6
 70
     1
102
RTVSPropertyOp7
 70
     1
102
RTVSPropertyOp8
 70
     1
102
RTVSPropertyOp9
 70
     1
102
RTVSPropertyOp10
 70
     1
102
RTVSPropertyOp11
 70
     1
102
RTVSPropertyOp12
 70
     1
102
RTVSPropertyOp13
 70
     1
102
RTVSPropertyOp14
 70
     1
102
RTVSPropertyOp15
 70
     1
102
RTVSPropertyOp16
 70
     1
102
RTVSPropertyOp17
 70
     1
102
RTVSPropertyOp18
 70
     1
102
RTVSPropertyOp19
 70
     1
102
RTVSPropertyOp20
 70
     1
102
RTVSPropertyOp21
 70
     1
102
RTVSPropertyOp22
 70
     1
102
RTVSPropertyOp23
 70
     1
102
RTVSPropertyOp24
 70
     1
102
RTVSPropertyOp25
 70
     1
102
RTVSPropertyOp26
 70
     1
102
RTVSPropertyOp27
 70
     1
102
RTVSPropertyOp28
 70
     1
102
RTVSPropertyOp29
 70
     1
102
RTVSPropertyOp30
 70
     1
102
RTVSPropertyOp31
 70
     1
102
RTVSPropertyOp32
 70
     1
102
RTVSPropertyOp33
 70
     1
102
RTVSPropertyOp34
 70
     1
102
RTVSPropertyOp35
 70
     1
102
RTVSPropertyOp36
 70
     1
102
RTVSPropertyOp37
 70
     1
102
RTVSPropertyOp38
 70
     1
102
RTVSPropertyOp39
 70
     1
102
RTVSPropertyOp40
 70
     1
102
RTVSPropertyOp41
 70
     1
102
RTVSPropertyOp42
 70
     1
102
RTVSPropertyOp43
 70
     1
102
RTVSPropertyOp44
 70
     1
102
RTVSPropertyOp45
 70
     1
102
RTVSPropertyOp46
 70
     1
102
RTVSPropertyOp47
 70
     1
102
RTVSPropertyOp48
 70
     1
102
RTVSPropertyOp49
 70
     1
102
RTVSPropertyOp50
 70
     1
102
RTVSPropertyOp51
 70
     0
102
RTVSPropertyOp52
 70
     0
102
RTVSPropertyOp53
 70
     1
102
RTVSPropertyOp54
 70
     1
102
RTVSPropertyOp55
 70
     1
102
RTVSPropertyOp56
 70
     1
102
RTVSPropertyOp57
 70
     1
102
RTVSPost2010Prop28
280
     0
102
RTVSPost2010PropOp28
 70
     1
102
RTVSPost2010Prop29
280
     1
102
RTVSPost2010PropOp29
 70
     1
102
RTVSPost2010Prop30
280
     1
102
RTVSPost2010PropOp30
 70
     1
102
RTVSPost2010Prop31
280
     0
102
RTVSPost2010PropOp31
 70
     1
102
RTVSPost2010Prop32
280
     0
102
RTVSPost2010PropOp32
 70
     1
102
RTVSPost2010Prop33
280
     0
102
RTVSPost2010PropOp33
 70
     1
102
RTVSPost2010Prop34
280
     0
102
RTVSPost2010PropOp34
 70
     1
102
RTVSPost2010Prop35
280
     0
102
RTVSPost2010PropOp35
 70
     1
102
RTVSPost2010Prop36
280
     0
102
RTVSPost2010PropOp36
 70
     1
102
RTVSPost2010Prop37
 90
       50
102
RTVSPost2010PropOp37
 70
     1
102
RTVSPost2010Prop38
140
0.0
102
RTVSPost2010PropOp38
 70
     1
102
RTVSPost2010Prop39
140
1.0
102
RTVSPost2010PropOp39
 70
     1
102
RTVSPost2010Prop40
 90
        0
102
RTVSPost2010PropOp40
 70
     1
102
RTVSPost2010Prop41ColorIndex
 90
       18
102
RTVSPost2010Prop41ColorRGB
 90
        0
102
RTVSPost2010PropOp41
 70
     1
102
RTVSPost2010Prop42
 90
       50
102
RTVSPost2010PropOp42
 70
     1
102
RTVSPost2010Prop43
 90
        3
102
RTVSPost2010PropOp43
 70
     1
102
RTVSPost2010Prop44ColorIndex
 90
        5
102
RTVSPost2010Prop44ColorRGB
 90
      255
102
RTVSPost2010PropOp44
 70
     1
102
RTVSPost2010Prop45
280
     0
102
RTVSPost2010PropOp45
 70
     1
102
RTVSPost2010Prop46
 90
       50
102
RTVSPost2010PropOp46
 70
     1
102
RTVSPost2010Prop47
 90
       50
102
RTVSPost2010PropOp47
 70
     1
102
RTVSPost2010Prop48
 90
       50
102
RTVSPost2010PropOp48
 70
     1
102
RTVSPost2010Prop49
280
     0
102
RTVSPost2010PropOp49
 70
     1
102
RTVSPost2010Prop50
 90
       50
102
RTVSPost2010PropOp50
 70
     1
102
RTVSPost2010Prop51ColorIndex
 90
      256
102
RTVSPost2010Prop51ColorRGB
 90
-16777216
102
RTVSPost2010PropOp51
 70
     0
102
RTVSPost2010Prop52
140
1.0
102
RTVSPost2010PropOp52
 70
     0
102
RTVSPost2010Prop53
 90
        2
102
RTVSPost2010PropOp53
 70
     1
102
RTVSPost2010Prop54
  1
strokes_ogs.tif
102
RTVSPost2010PropOp54
 70
     1
102
RTVSPost2010Prop55
280
     0
102
RTVSPost2010PropOp55
 70
     1
102
RTVSPost2010Prop56
140
1.0
102
RTVSPost2010PropOp56
 70
     1
102
RTVSPost2010Prop57
140
1.0
102
RTVSPost2010PropOp57
 70
     1
  0
XRECORD
  5
2A3
102
{ACAD_REACTORS
330
2A2
102
}
330
2A2
100
AcDbXrecord
280
     1
102
RTVSPropertyOp0
 70
     1
102
RTVSPropertyOp1
 70
     1
102
RTVSPropertyOp2
 70
     1
102
RTVSPropertyOp3
 70
     1
102
RTVSPropertyOp4
 70
     1
102
RTVSPropertyOp5
 70
     1
102
RTVSPropertyOp6
 70
     1
102
RTVSPropertyOp7
 70
     1
102
RTVSPropertyOp8
 70
     1
102
RTVSPropertyOp9
 70
     1
102
RTVSPropertyOp10
 70
     1
102
RTVSPropertyOp11
 70
     1
102
RTVSPropertyOp12
 70
     1
102
RTVSPropertyOp13
 70
     1
102
RTVSPropertyOp14
 70
     1
102
RTVSPropertyOp15
 70
     1
102
RTVSPropertyOp16
 70
     1
102
RTVSPropertyOp17
 70
     1
102
RTVSPropertyOp18
 70
     1
102
RTVSPropertyOp19
 70
     1
102
RTVSPropertyOp20
 70
     1
102
RTVSPropertyOp21
 70
     1
102
RTVSPropertyOp22
 70
     1
102
RTVSPropertyOp23
 70
     1
102
RTVSPropertyOp24
 70
     1
102
RTVSPropertyOp25
 70
     1
102
RTVSPropertyOp26
 70
     1
102
RTVSPropertyOp27
 70
     1
102
RTVSPropertyOp28
 70
     1
102
RTVSPropertyOp29
 70
     1
102
RTVSPropertyOp30
 70
     1
102
RTVSPropertyOp31
 70
     1
102
RTVSPropertyOp32
 70
     1
102
RTVSPropertyOp33
 70
     1
102
RTVSPropertyOp34
 70
     1
102
RTVSPropertyOp35
 70
     1
102
RTVSPropertyOp36
 70
     1
102
RTVSPropertyOp37
 70
     1
102
RTVSPropertyOp38
 70
     1
102
RTVSPropertyOp39
 70
     1
102
RTVSPropertyOp40
 70
     1
102
RTVSPropertyOp41
 70
     1
102
RTVSPropertyOp42
 70
     1
102
RTVSPropertyOp43
 70
     1
102
RTVSPropertyOp44
 70
     1
102
RTVSPropertyOp45
 70
     1
102
RTVSPropertyOp46
 70
     1
102
RTVSPropertyOp47
 70
     1
102
RTVSPropertyOp48
 70
     1
102
RTVSPropertyOp49
 70
     1
102
RTVSPropertyOp50
 70
     1
102
RTVSPropertyOp51
 70
     0
102
RTVSPropertyOp52
 70
     0
102
RTVSPropertyOp53
 70
     1
102
RTVSPropertyOp54
 70
     1
102
RTVSPropertyOp55
 70
     1
102
RTVSPropertyOp56
 70
     1
102
RTVSPropertyOp57
 70
     1
102
RTVSPost2010Prop28
280
     0
102
RTVSPost2010PropOp28
 70
     1
102
RTVSPost2010Prop29
280
     1
102
RTVSPost2010PropOp29
 70
     1
102
RTVSPost2010Prop30
280
     1
102
RTVSPost2010PropOp30
 70
     1
102
RTVSPost2010Prop31
280
     0
102
RTVSPost2010PropOp31
 70
     1
102
RTVSPost2010Prop32
280
     0
102
RTVSPost2010PropOp32
 70
     1
102
RTVSPost2010Prop33
280
     0
102
RTVSPost2010PropOp33
 70
     1
102
RTVSPost2010Prop34
280
     0
102
RTVSPost2010PropOp34
 70
     1
102
RTVSPost2010Prop35
280
     0
102
RTVSPost2010PropOp35
 70
     1
102
RTVSPost2010Prop36
280
     0
102
RTVSPost2010PropOp36
 70
     1
102
RTVSPost2010Prop37
 90
       50
102
RTVSPost2010PropOp37
 70
     1
102
RTVSPost2010Prop38
140
0.0
102
RTVSPost2010PropOp38
 70
     1
102
RTVSPost2010Prop39
140
1.0
102
RTVSPost2010PropOp39
 70
     1
102
RTVSPost2010Prop40
 90
        0
102
RTVSPost2010PropOp40
 70
     1
102
RTVSPost2010Prop41ColorIndex
 90
       18
102
RTVSPost2010Prop41ColorRGB
 90
        0
102
RTVSPost2010PropOp41
 70
     1
102
RTVSPost2010Prop42
 90
       50
102
RTVSPost2010PropOp42
 70
     1
102
RTVSPost2010Prop43
 90
        3
102
RTVSPost2010PropOp43
 70
     1
102
RTVSPost2010Prop44ColorIndex
 90
        5
102
RTVSPost2010Prop44ColorRGB
 90
      255
102
RTVSPost2010PropOp44
 70
     1
102
RTVSPost2010Prop45
280
     0
102
RTVSPost2010PropOp45
 70
     1
102
RTVSPost2010Prop46
 90
       50
102
RTVSPost2010PropOp46
 70
     1
102
RTVSPost2010Prop47
 90
       50
102
RTVSPost2010PropOp47
 70
     1
102
RTVSPost2010Prop48
 90
       50
102
RTVSPost2010PropOp48
 70
     1
102
RTVSPost2010Prop49
280
     0
102
RTVSPost2010PropOp49
 70
     1
102
RTVSPost2010Prop50
 90
       50
102
RTVSPost2010PropOp50
 70
     1
102
RTVSPost2010Prop51ColorIndex
 90
      256
102
RTVSPost2010Prop51ColorRGB
 90
-16777216
102
RTVSPost2010PropOp51
 70
     0
102
RTVSPost2010Prop52
140
1.0
102
RTVSPost2010PropOp52
 70
     0
102
RTVSPost2010Prop53
 90
        2
102
RTVSPost2010PropOp53
 70
     1
102
RTVSPost2010Prop54
  1
strokes_ogs.tif
102
RTVSPost2010PropOp54
 70
     1
102
RTVSPost2010Prop55
280
     0
102
RTVSPost2010PropOp55
 70
     1
102
RTVSPost2010Prop56
140
1.0
102
RTVSPost2010PropOp56
 70
     1
102
RTVSPost2010Prop57
140
1.0
102
RTVSPost2010PropOp57
 70
     1
  0
XRECORD
  5
2A5
102
{ACAD_REACTORS
330
2A4
102
}
330
2A4
100
AcDbXrecord
280
     1
102
RTVSPropertyOp0
 70
     1
102
RTVSPropertyOp1
 70
     1
102
RTVSPropertyOp2
 70
     1
102
RTVSPropertyOp3
 70
     1
102
RTVSPropertyOp4
 70
     1
102
RTVSPropertyOp5
 70
     1
102
RTVSPropertyOp6
 70
     1
102
RTVSPropertyOp7
 70
     1
102
RTVSPropertyOp8
 70
     1
102
RTVSPropertyOp9
 70
     1
102
RTVSPropertyOp10
 70
     1
102
RTVSPropertyOp11
 70
     1
102
RTVSPropertyOp12
 70
     1
102
RTVSPropertyOp13
 70
     1
102
RTVSPropertyOp14
 70
     1
102
RTVSPropertyOp15
 70
     1
102
RTVSPropertyOp16
 70
     1
102
RTVSPropertyOp17
 70
     1
102
RTVSPropertyOp18
 70
     1
102
RTVSPropertyOp19
 70
     1
102
RTVSPropertyOp20
 70
     1
102
RTVSPropertyOp21
 70
     1
102
RTVSPropertyOp22
 70
     1
102
RTVSPropertyOp23
 70
     1
102
RTVSPropertyOp24
 70
     1
102
RTVSPropertyOp25
 70
     1
102
RTVSPropertyOp26
 70
     1
102
RTVSPropertyOp27
 70
     1
102
RTVSPropertyOp28
 70
     1
102
RTVSPropertyOp29
 70
     1
102
RTVSPropertyOp30
 70
     1
102
RTVSPropertyOp31
 70
     1
102
RTVSPropertyOp32
 70
     1
102
RTVSPropertyOp33
 70
     1
102
RTVSPropertyOp34
 70
     1
102
RTVSPropertyOp35
 70
     1
102
RTVSPropertyOp36
 70
     1
102
RTVSPropertyOp37
 70
     1
102
RTVSPropertyOp38
 70
     1
102
RTVSPropertyOp39
 70
     1
102
RTVSPropertyOp40
 70
     1
102
RTVSPropertyOp41
 70
     1
102
RTVSPropertyOp42
 70
     1
102
RTVSPropertyOp43
 70
     1
102
RTVSPropertyOp44
 70
     1
102
RTVSPropertyOp45
 70
     1
102
RTVSPropertyOp46
 70
     1
102
RTVSPropertyOp47
 70
     1
102
RTVSPropertyOp48
 70
     1
102
RTVSPropertyOp49
 70
     1
102
RTVSPropertyOp50
 70
     1
102
RTVSPropertyOp51
 70
     0
102
RTVSPropertyOp52
 70
     0
102
RTVSPropertyOp53
 70
     1
102
RTVSPropertyOp54
 70
     1
102
RTVSPropertyOp55
 70
     1
102
RTVSPropertyOp56
 70
     1
102
RTVSPropertyOp57
 70
     1
102
RTVSPost2010Prop28
280
     0
102
RTVSPost2010PropOp28
 70
     1
102
RTVSPost2010Prop29
280
     1
102
RTVSPost2010PropOp29
 70
     1
102
RTVSPost2010Prop30
280
     1
102
RTVSPost2010PropOp30
 70
     1
102
RTVSPost2010Prop31
280
     0
102
RTVSPost2010PropOp31
 70
     1
102
RTVSPost2010Prop32
280
     0
102
RTVSPost2010PropOp32
 70
     1
102
RTVSPost2010Prop33
280
     0
102
RTVSPost2010PropOp33
 70
     1
102
RTVSPost2010Prop34
280
     0
102
RTVSPost2010PropOp34
 70
     1
102
RTVSPost2010Prop35
280
     0
102
RTVSPost2010PropOp35
 70
     1
102
RTVSPost2010Prop36
280
     0
102
RTVSPost2010PropOp36
 70
     1
102
RTVSPost2010Prop37
 90
       50
102
RTVSPost2010PropOp37
 70
     1
102
RTVSPost2010Prop38
140
0.0
102
RTVSPost2010PropOp38
 70
     1
102
RTVSPost2010Prop39
140
1.0
102
RTVSPost2010PropOp39
 70
     1
102
RTVSPost2010Prop40
 90
        0
102
RTVSPost2010PropOp40
 70
     1
102
RTVSPost2010Prop41ColorIndex
 90
       18
102
RTVSPost2010Prop41ColorRGB
 90
        0
102
RTVSPost2010PropOp41
 70
     1
102
RTVSPost2010Prop42
 90
       50
102
RTVSPost2010PropOp42
 70
     1
102
RTVSPost2010Prop43
 90
        3
102
RTVSPost2010PropOp43
 70
     1
102
RTVSPost2010Prop44ColorIndex
 90
        5
102
RTVSPost2010Prop44ColorRGB
 90
      255
102
RTVSPost2010PropOp44
 70
     1
102
RTVSPost2010Prop45
280
     0
102
RTVSPost2010PropOp45
 70
     1
102
RTVSPost2010Prop46
 90
       50
102
RTVSPost2010PropOp46
 70
     1
102
RTVSPost2010Prop47
 90
       50
102
RTVSPost2010PropOp47
 70
     1
102
RTVSPost2010Prop48
 90
       50
102
RTVSPost2010PropOp48
 70
     1
102
RTVSPost2010Prop49
280
     0
102
RTVSPost2010PropOp49
 70
     1
102
RTVSPost2010Prop50
 90
       50
102
RTVSPost2010PropOp50
 70
     1
102
RTVSPost2010Prop51ColorIndex
 90
      256
102
RTVSPost2010Prop51ColorRGB
 90
-16777216
102
RTVSPost2010PropOp51
 70
     0
102
RTVSPost2010Prop52
140
1.0
102
RTVSPost2010PropOp52
 70
     0
102
RTVSPost2010Prop53
 90
        2
102
RTVSPost2010PropOp53
 70
     1
102
RTVSPost2010Prop54
  1
strokes_ogs.tif
102
RTVSPost2010PropOp54
 70
     1
102
RTVSPost2010Prop55
280
     0
102
RTVSPost2010PropOp55
 70
     1
102
RTVSPost2010Prop56
140
1.0
102
RTVSPost2010PropOp56
 70
     1
102
RTVSPost2010Prop57
140
1.0
102
RTVSPost2010PropOp57
 70
     1
  0
XRECORD
  5
295
102
{ACAD_REACTORS
330
294
102
}
330
294
100
AcDbXrecord
280
     1
102
RTVSPropertyOp0
 70
     1
102
RTVSPropertyOp1
 70
     1
102
RTVSPropertyOp2
 70
     1
102
RTVSPropertyOp3
 70
     1
102
RTVSPropertyOp4
 70
     1
102
RTVSPropertyOp5
 70
     1
102
RTVSPropertyOp6
 70
     1
102
RTVSPropertyOp7
 70
     1
102
RTVSPropertyOp8
 70
     1
102
RTVSPropertyOp9
 70
     1
102
RTVSPropertyOp10
 70
     1
102
RTVSPropertyOp11
 70
     1
102
RTVSPropertyOp12
 70
     1
102
RTVSPropertyOp13
 70
     1
102
RTVSPropertyOp14
 70
     1
102
RTVSPropertyOp15
 70
     1
102
RTVSPropertyOp16
 70
     1
102
RTVSPropertyOp17
 70
     1
102
RTVSPropertyOp18
 70
     1
102
RTVSPropertyOp19
 70
     1
102
RTVSPropertyOp20
 70
     1
102
RTVSPropertyOp21
 70
     1
102
RTVSPropertyOp22
 70
     1
102
RTVSPropertyOp23
 70
     1
102
RTVSPropertyOp24
 70
     1
102
RTVSPropertyOp25
 70
     1
102
RTVSPropertyOp26
 70
     1
102
RTVSPropertyOp27
 70
     1
102
RTVSPropertyOp28
 70
     1
102
RTVSPropertyOp29
 70
     1
102
RTVSPropertyOp30
 70
     1
102
RTVSPropertyOp31
 70
     1
102
RTVSPropertyOp32
 70
     1
102
RTVSPropertyOp33
 70
     1
102
RTVSPropertyOp34
 70
     1
102
RTVSPropertyOp35
 70
     1
102
RTVSPropertyOp36
 70
     1
102
RTVSPropertyOp37
 70
     1
102
RTVSPropertyOp38
 70
     1
102
RTVSPropertyOp39
 70
     1
102
RTVSPropertyOp40
 70
     1
102
RTVSPropertyOp41
 70
     1
102
RTVSPropertyOp42
 70
     1
102
RTVSPropertyOp43
 70
     1
102
RTVSPropertyOp44
 70
     1
102
RTVSPropertyOp45
 70
     1
102
RTVSPropertyOp46
 70
     1
102
RTVSPropertyOp47
 70
     1
102
RTVSPropertyOp48
 70
     1
102
RTVSPropertyOp49
 70
     1
102
RTVSPropertyOp50
 70
     1
102
RTVSPropertyOp51
 70
     0
102
RTVSPropertyOp52
 70
     0
102
RTVSPropertyOp53
 70
     1
102
RTVSPropertyOp54
 70
     1
102
RTVSPropertyOp55
 70
     1
102
RTVSPropertyOp56
 70
     1
102
RTVSPropertyOp57
 70
     1
102
RTVSPost2010Prop28
280
     0
102
RTVSPost2010PropOp28
 70
     1
102
RTVSPost2010Prop29
280
     1
102
RTVSPost2010PropOp29
 70
     1
102
RTVSPost2010Prop30
280
     1
102
RTVSPost2010PropOp30
 70
     1
102
RTVSPost2010Prop31
280
     0
102
RTVSPost2010PropOp31
 70
     1
102
RTVSPost2010Prop32
280
     0
102
RTVSPost2010PropOp32
 70
     1
102
RTVSPost2010Prop33
280
     0
102
RTVSPost2010PropOp33
 70
     1
102
RTVSPost2010Prop34
280
     0
102
RTVSPost2010PropOp34
 70
     1
102
RTVSPost2010Prop35
280
     0
102
RTVSPost2010PropOp35
 70
     1
102
RTVSPost2010Prop36
280
     0
102
RTVSPost2010PropOp36
 70
     1
102
RTVSPost2010Prop37
 90
       50
102
RTVSPost2010PropOp37
 70
     1
102
RTVSPost2010Prop38
140
0.0
102
RTVSPost2010PropOp38
 70
     1
102
RTVSPost2010Prop39
140
1.0
102
RTVSPost2010PropOp39
 70
     1
102
RTVSPost2010Prop40
 90
        0
102
RTVSPost2010PropOp40
 70
     1
102
RTVSPost2010Prop41ColorIndex
 90
       18
102
RTVSPost2010Prop41ColorRGB
 90
        0
102
RTVSPost2010PropOp41
 70
     1
102
RTVSPost2010Prop42
 90
       50
102
RTVSPost2010PropOp42
 70
     1
102
RTVSPost2010Prop43
 90
        3
102
RTVSPost2010PropOp43
 70
     1
102
RTVSPost2010Prop44ColorIndex
 90
        5
102
RTVSPost2010Prop44ColorRGB
 90
      255
102
RTVSPost2010PropOp44
 70
     1
102
RTVSPost2010Prop45
280
     0
102
RTVSPost2010PropOp45
 70
     1
102
RTVSPost2010Prop46
 90
       50
102
RTVSPost2010PropOp46
 70
     1
102
RTVSPost2010Prop47
 90
       50
102
RTVSPost2010PropOp47
 70
     1
102
RTVSPost2010Prop48
 90
       50
102
RTVSPost2010PropOp48
 70
     1
102
RTVSPost2010Prop49
280
     0
102
RTVSPost2010PropOp49
 70
     1
102
RTVSPost2010Prop50
 90
       50
102
RTVSPost2010PropOp50
 70
     1
102
RTVSPost2010Prop51ColorIndex
 90
      256
102
RTVSPost2010Prop51ColorRGB
 90
-16777216
102
RTVSPost2010PropOp51
 70
     0
102
RTVSPost2010Prop52
140
1.0
102
RTVSPost2010PropOp52
 70
     0
102
RTVSPost2010Prop53
 90
        2
102
RTVSPost2010PropOp53
 70
     1
102
RTVSPost2010Prop54
  1
strokes_ogs.tif
102
RTVSPost2010PropOp54
 70
     1
102
RTVSPost2010Prop55
280
     0
102
RTVSPost2010PropOp55
 70
     1
102
RTVSPost2010Prop56
140
1.0
102
RTVSPost2010PropOp56
 70
     1
102
RTVSPost2010Prop57
140
1.0
102
RTVSPost2010PropOp57
 70
     1
  0
XRECORD
  5
287
102
{ACAD_REACTORS
330
286
102
}
330
286
100
AcDbXrecord
280
     1
102
RTVSPropertyOp0
 70
     1
102
RTVSPropertyOp1
 70
     1
102
RTVSPropertyOp2
 70
     1
102
RTVSPropertyOp3
 70
     1
102
RTVSPropertyOp4
 70
     1
102
RTVSPropertyOp5
 70
     1
102
RTVSPropertyOp6
 70
     1
102
RTVSPropertyOp7
 70
     1
102
RTVSPropertyOp8
 70
     1
102
RTVSPropertyOp9
 70
     1
102
RTVSPropertyOp10
 70
     1
102
RTVSPropertyOp11
 70
     1
102
RTVSPropertyOp12
 70
     1
102
RTVSPropertyOp13
 70
     1
102
RTVSPropertyOp14
 70
     1
102
RTVSPropertyOp15
 70
     1
102
RTVSPropertyOp16
 70
     1
102
RTVSPropertyOp17
 70
     1
102
RTVSPropertyOp18
 70
     1
102
RTVSPropertyOp19
 70
     1
102
RTVSPropertyOp20
 70
     1
102
RTVSPropertyOp21
 70
     1
102
RTVSPropertyOp22
 70
     1
102
RTVSPropertyOp23
 70
     1
102
RTVSPropertyOp24
 70
     1
102
RTVSPropertyOp25
 70
     1
102
RTVSPropertyOp26
 70
     1
102
RTVSPropertyOp27
 70
     1
102
RTVSPropertyOp28
 70
     1
102
RTVSPropertyOp29
 70
     1
102
RTVSPropertyOp30
 70
     1
102
RTVSPropertyOp31
 70
     1
102
RTVSPropertyOp32
 70
     1
102
RTVSPropertyOp33
 70
     1
102
RTVSPropertyOp34
 70
     1
102
RTVSPropertyOp35
 70
     1
102
RTVSPropertyOp36
 70
     1
102
RTVSPropertyOp37
 70
     1
102
RTVSPropertyOp38
 70
     1
102
RTVSPropertyOp39
 70
     1
102
RTVSPropertyOp40
 70
     1
102
RTVSPropertyOp41
 70
     1
102
RTVSPropertyOp42
 70
     1
102
RTVSPropertyOp43
 70
     1
102
RTVSPropertyOp44
 70
     1
102
RTVSPropertyOp45
 70
     1
102
RTVSPropertyOp46
 70
     1
102
RTVSPropertyOp47
 70
     1
102
RTVSPropertyOp48
 70
     1
102
RTVSPropertyOp49
 70
     1
102
RTVSPropertyOp50
 70
     1
102
RTVSPropertyOp51
 70
     0
102
RTVSPropertyOp52
 70
     0
102
RTVSPropertyOp53
 70
     1
102
RTVSPropertyOp54
 70
     1
102
RTVSPropertyOp55
 70
     1
102
RTVSPropertyOp56
 70
     1
102
RTVSPropertyOp57
 70
     1
102
RTVSPost2010Prop28
280
     0
102
RTVSPost2010PropOp28
 70
     1
102
RTVSPost2010Prop29
280
     1
102
RTVSPost2010PropOp29
 70
     1
102
RTVSPost2010Prop30
280
     1
102
RTVSPost2010PropOp30
 70
     1
102
RTVSPost2010Prop31
280
     0
102
RTVSPost2010PropOp31
 70
     1
102
RTVSPost2010Prop32
280
     0
102
RTVSPost2010PropOp32
 70
     1
102
RTVSPost2010Prop33
280
     0
102
RTVSPost2010PropOp33
 70
     1
102
RTVSPost2010Prop34
280
     0
102
RTVSPost2010PropOp34
 70
     1
102
RTVSPost2010Prop35
280
     0
102
RTVSPost2010PropOp35
 70
     1
102
RTVSPost2010Prop36
280
     0
102
RTVSPost2010PropOp36
 70
     1
102
RTVSPost2010Prop37
 90
       50
102
RTVSPost2010PropOp37
 70
     1
102
RTVSPost2010Prop38
140
0.0
102
RTVSPost2010PropOp38
 70
     1
102
RTVSPost2010Prop39
140
1.0
102
RTVSPost2010PropOp39
 70
     1
102
RTVSPost2010Prop40
 90
        0
102
RTVSPost2010PropOp40
 70
     1
102
RTVSPost2010Prop41ColorIndex
 90
       18
102
RTVSPost2010Prop41ColorRGB
 90
        0
102
RTVSPost2010PropOp41
 70
     1
102
RTVSPost2010Prop42
 90
       50
102
RTVSPost2010PropOp42
 70
     1
102
RTVSPost2010Prop43
 90
        3
102
RTVSPost2010PropOp43
 70
     1
102
RTVSPost2010Prop44ColorIndex
 90
        5
102
RTVSPost2010Prop44ColorRGB
 90
      255
102
RTVSPost2010PropOp44
 70
     1
102
RTVSPost2010Prop45
280
     0
102
RTVSPost2010PropOp45
 70
     1
102
RTVSPost2010Prop46
 90
       50
102
RTVSPost2010PropOp46
 70
     1
102
RTVSPost2010Prop47
 90
       50
102
RTVSPost2010PropOp47
 70
     1
102
RTVSPost2010Prop48
 90
       50
102
RTVSPost2010PropOp48
 70
     1
102
RTVSPost2010Prop49
280
     0
102
RTVSPost2010PropOp49
 70
     1
102
RTVSPost2010Prop50
 90
       50
102
RTVSPost2010PropOp50
 70
     1
102
RTVSPost2010Prop51ColorIndex
 90
      256
102
RTVSPost2010Prop51ColorRGB
 90
-16777216
102
RTVSPost2010PropOp51
 70
     0
102
RTVSPost2010Prop52
140
1.0
102
RTVSPost2010PropOp52
 70
     0
102
RTVSPost2010Prop53
 90
        2
102
RTVSPost2010PropOp53
 70
     1
102
RTVSPost2010Prop54
  1
strokes_ogs.tif
102
RTVSPost2010PropOp54
 70
     1
102
RTVSPost2010Prop55
280
     0
102
RTVSPost2010PropOp55
 70
     1
102
RTVSPost2010Prop56
140
1.0
102
RTVSPost2010PropOp56
 70
     1
102
RTVSPost2010Prop57
140
1.0
102
RTVSPost2010PropOp57
 70
     1
  0
XRECORD
  5
2A7
102
{ACAD_REACTORS
330
2A6
102
}
330
2A6
100
AcDbXrecord
280
     1
102
RTVSPropertyOp0
 70
     1
102
RTVSPropertyOp1
 70
     1
102
RTVSPropertyOp2
 70
     1
102
RTVSPropertyOp3
 70
     1
102
RTVSPropertyOp4
 70
     1
102
RTVSPropertyOp5
 70
     1
102
RTVSPropertyOp6
 70
     1
102
RTVSPropertyOp7
 70
     1
102
RTVSPropertyOp8
 70
     1
102
RTVSPropertyOp9
 70
     1
102
RTVSPropertyOp10
 70
     1
102
RTVSPropertyOp11
 70
     1
102
RTVSPropertyOp12
 70
     1
102
RTVSPropertyOp13
 70
     1
102
RTVSPropertyOp14
 70
     1
102
RTVSPropertyOp15
 70
     1
102
RTVSPropertyOp16
 70
     1
102
RTVSPropertyOp17
 70
     1
102
RTVSPropertyOp18
 70
     1
102
RTVSPropertyOp19
 70
     1
102
RTVSPropertyOp20
 70
     1
102
RTVSPropertyOp21
 70
     1
102
RTVSPropertyOp22
 70
     1
102
RTVSPropertyOp23
 70
     1
102
RTVSPropertyOp24
 70
     1
102
RTVSPropertyOp25
 70
     1
102
RTVSPropertyOp26
 70
     1
102
RTVSPropertyOp27
 70
     1
102
RTVSPropertyOp28
 70
     1
102
RTVSPropertyOp29
 70
     1
102
RTVSPropertyOp30
 70
     1
102
RTVSPropertyOp31
 70
     1
102
RTVSPropertyOp32
 70
     1
102
RTVSPropertyOp33
 70
     1
102
RTVSPropertyOp34
 70
     1
102
RTVSPropertyOp35
 70
     1
102
RTVSPropertyOp36
 70
     1
102
RTVSPropertyOp37
 70
     1
102
RTVSPropertyOp38
 70
     1
102
RTVSPropertyOp39
 70
     1
102
RTVSPropertyOp40
 70
     1
102
RTVSPropertyOp41
 70
     1
102
RTVSPropertyOp42
 70
     1
102
RTVSPropertyOp43
 70
     1
102
RTVSPropertyOp44
 70
     1
102
RTVSPropertyOp45
 70
     1
102
RTVSPropertyOp46
 70
     1
102
RTVSPropertyOp47
 70
     1
102
RTVSPropertyOp48
 70
     1
102
RTVSPropertyOp49
 70
     1
102
RTVSPropertyOp50
 70
     1
102
RTVSPropertyOp51
 70
     0
102
RTVSPropertyOp52
 70
     0
102
RTVSPropertyOp53
 70
     1
102
RTVSPropertyOp54
 70
     1
102
RTVSPropertyOp55
 70
     1
102
RTVSPropertyOp56
 70
     1
102
RTVSPropertyOp57
 70
     1
102
RTVSPost2010Prop28
280
     0
102
RTVSPost2010PropOp28
 70
     1
102
RTVSPost2010Prop29
280
     1
102
RTVSPost2010PropOp29
 70
     1
102
RTVSPost2010Prop30
280
     1
102
RTVSPost2010PropOp30
 70
     1
102
RTVSPost2010Prop31
280
     0
102
RTVSPost2010PropOp31
 70
     1
102
RTVSPost2010Prop32
280
     0
102
RTVSPost2010PropOp32
 70
     1
102
RTVSPost2010Prop33
280
     0
102
RTVSPost2010PropOp33
 70
     1
102
RTVSPost2010Prop34
280
     0
102
RTVSPost2010PropOp34
 70
     1
102
RTVSPost2010Prop35
280
     0
102
RTVSPost2010PropOp35
 70
     1
102
RTVSPost2010Prop36
280
     0
102
RTVSPost2010PropOp36
 70
     1
102
RTVSPost2010Prop37
 90
       50
102
RTVSPost2010PropOp37
 70
     1
102
RTVSPost2010Prop38
140
0.0
102
RTVSPost2010PropOp38
 70
     1
102
RTVSPost2010Prop39
140
1.0
102
RTVSPost2010PropOp39
 70
     1
102
RTVSPost2010Prop40
 90
        0
102
RTVSPost2010PropOp40
 70
     1
102
RTVSPost2010Prop41ColorIndex
 90
       18
102
RTVSPost2010Prop41ColorRGB
 90
        0
102
RTVSPost2010PropOp41
 70
     1
102
RTVSPost2010Prop42
 90
       50
102
RTVSPost2010PropOp42
 70
     1
102
RTVSPost2010Prop43
 90
        3
102
RTVSPost2010PropOp43
 70
     1
102
RTVSPost2010Prop44ColorIndex
 90
        5
102
RTVSPost2010Prop44ColorRGB
 90
      255
102
RTVSPost2010PropOp44
 70
     1
102
RTVSPost2010Prop45
280
     0
102
RTVSPost2010PropOp45
 70
     1
102
RTVSPost2010Prop46
 90
       50
102
RTVSPost2010PropOp46
 70
     1
102
RTVSPost2010Prop47
 90
       50
102
RTVSPost2010PropOp47
 70
     1
102
RTVSPost2010Prop48
 90
       50
102
RTVSPost2010PropOp48
 70
     1
102
RTVSPost2010Prop49
280
     0
102
RTVSPost2010PropOp49
 70
     1
102
RTVSPost2010Prop50
 90
       50
102
RTVSPost2010PropOp50
 70
     1
102
RTVSPost2010Prop51ColorIndex
 90
      256
102
RTVSPost2010Prop51ColorRGB
 90
-16777216
102
RTVSPost2010PropOp51
 70
     0
102
RTVSPost2010Prop52
140
1.0
102
RTVSPost2010PropOp52
 70
     0
102
RTVSPost2010Prop53
 90
        2
102
RTVSPost2010PropOp53
 70
     1
102
RTVSPost2010Prop54
  1
strokes_ogs.tif
102
RTVSPost2010PropOp54
 70
     1
102
RTVSPost2010Prop55
280
     0
102
RTVSPost2010PropOp55
 70
     1
102
RTVSPost2010Prop56
140
1.0
102
RTVSPost2010PropOp56
 70
     1
102
RTVSPost2010Prop57
140
1.0
102
RTVSPost2010PropOp57
 70
     1
  0
ENDSEC
  0
EOF
